The B-52`s - Dirty Back Road tab

Intro

e--5--3--1--3--5-----1----|
B-------------------------|
G-------------------------|
D-------------------------|
A-------------------------|
E-------------------------|

Part One

e---------1---------------|
B-------------------------|
G-----------3-3-3-3-3-3-3-|
D-----------3-3-3-3-3-3-3-|
A--5xx3-3-----------------|
E--3xx1-1-----------------|

Part Two

e------------------------|
B------------------------|
G------------------------|
D--5----7-5-3-7-5-3-5----|
A------------------------|
E------------------------|

Ricky Wilson--> Genius.

That being said: SHAMELESS PLUG.

Check out my music at:

http://www.purevolume.com/TheAbominations
Tap to rate this tab
 
# A B C D E F G H I J K L M N O P Q R S T U V W X Y Z