Song name
# A B C D E F G H I J K L M N O P Q R S T U V W X Y Z

The B-52s - Rock Lobster tab

Rock Lobster - The B-52's

Tuning: Drop D flat (Db, Ab, Db, Gb, Bb, Eb)

Intro/Verse

   1   2   3   4    1   2   3   4    1   2   3   4    1   2   3   4
Eb|----------------|----------------|----------------|----------------|
Bb|----------------|----------------|----------------|----------------|
Gb|----------------|----------------|----------------|----------------|
Db|----------------|----------------|----------------|----------------|
Ab|----------------|1-0-1-0---------|----------------|1-0-1-0---------|
Db|0---2---3---2-0-|----------------|0---2---3---2-0-|----------------|

Listen for the change in the song for the chorus

Chorus

   1   2   3   4    1   2   3   4    1   2   3   4    1   2   3   4
Eb|----------------|----------------|----------------|----------------|
Bb|----------------|----------------|----------------|----------------|
Gb|----------------|----------------|----------------|----------------| x4
Db|----------------|----------------|----------------|----------------|
Ab|----------------|----------------|1-1-1-1-1-1-1-1-|0-0-0-0-0-0-0-0-|
Db|0-0-0-0-0-0-0-0-|2-2-2-2-2-2-2-2-|----------------|----------------|

   1   2   3   4    1   2   3   4    1   2   3   4    1   2   3   4
Eb|----------------|----------------|----------------|----------------|
Bb|----------------|----------------|----------------|----------------|
Gb|----------------|----------------|----------------|----------------|
Db|----------------|----------------|----------------|----------------|
Ab|----------------|1-1-1-1-0-0-0-0-|----------------|1-1-1-1-0-0-0-0-|
Db|0-0-0-0-2-2-2-2-|----------------|0-0-0-0-2-2-2-2-|----------------|

   1   2   3   4    1   2   3   4    1   2   3   4    1   2   3   4
Eb|----------------|----------------|----------------|----------------|
Bb|----------------|----------------|----------------|----------------|
Gb|----------------|----------------|----------------|----------------|
Db|----------------|----------------|----------------|----------------|
Ab|--------1-1-0-0-|--------1-1-0-0-|--------1-1-0-0-|1-1-0-0-1-1-0-0-|
Db|0-0-2-2---------|0-0-2-2---------|0-0-2-2---------|----------------|

After the chorus it goes back into the intro/verse part. There's a bridge that gets 
played twice during the song as well.

The bridge will be coming soon, but should be simple to figure out for whomever wants to 
try it
Tap to rate this tab
# A B C D E F G H I J K L M N O P Q R S T U V W X Y Z