Song name
# A B C D E F G H I J K L M N O P Q R S T U V W X Y Z

The B-52`s - Planet Claire tab

-------------------|
-------------------|
-------------------|
-------------------| 7times(also play with palm muting)
-------------0-----|
-0-0-2-0-3-0---4---|

--13-12-11-10-9-10-11-12-13-----------------------13-----------|
-----------------------------13-12-11-13-12-11-12--------------|
---------------------------------------------------------------|
---------------------------------------------------------------| Then this part restarts.
-----------------------------------------------------      <---|
---------------------------------------------------------------|
Tap to rate this tab
# A B C D E F G H I J K L M N O P Q R S T U V W X Y Z