Song name
# A B C D E F G H I J K L M N O P Q R S T U V W X Y Z

The B Foundation - Say It In Sin tab

Help us improve GuitareTab! Take a short survey!
Tabbed by:RobDukeit24
Email:Zoltron24
                                   Say it in Sin 
                                  The b Foundation
Amazing Song, amazing band, enjoy.
This is the bass line in the intro
e|---------------------------------------------------------------------------|
B|---------------------------------------------------------------------------|
G|---------------------------------------------------------------------------|
D|---------------------------------------------------------------------------|
A|--5-5-5---------5-5---5-5-5---------5-5---5--------------------------------|
E|--------6-6-5-5-------------6-6-5-5---------6-5-5--------------------------|
This is the guitar part.
e|---------------------------------------------------------------------------|
B|---------------------------------------------------------------------------|
G|-77777777-99999999-1010101010101010-99999999-77777777-66666666-6/7---------|
D|------------------------------------------------------------------7-8p7h8-5|
A|---------------------------------------------------------------------------|
E|---------------------------------------------------------------------------|

e|---------------------------------------------------------------------------|
B|---------------------------------------------------------------------------|
G|--77777777-99999999-1010101010101010-10/12-10\9-10\9-7--77777777-66666666--|
D|---------------------------------------------------------------------------|
A|---------------------------------------------------------------------------|
E|---------------------------------------------------------------------------|
         D U
e|-------x-x-----------------------------------------------------------------|
B|-------x-x-----------------------------------------------------------------|
G|--6/7--x-x-----------------------------------------------------------------|
D|-------x-x-----------------------------------------------------------------|
A|-------x-x----7/8----------------------------------------------------------|
E|-------x-x-----------------------------------------------------------------|


| /  slide up
| \  slide down
| h  hammer-on
| p  pull-off
| ~  vibrato
| +  harmonic
| x  Mute note
Related for Say It In Sin tab