Song name
# A B C D E F G H I J K L M N O P Q R S T U V W X Y Z

The B Foundation - Something New tab

-------------------------------------------------------------------------------
			     Something New - B Foundation
-------------------------------------------------------------------------------
Tabbed by:Coda Crose
Email:Croady@yahoo.com

Tuning:standard
       C                      A                               D\C
e|-----------5--5---5--5-------------------------------------------------------|
B|-----------5--5---5--5-------------------------------------------------------|
G|-5--5---x--6--6---6--6---7\5-------------------------------------------------|
D|-5--5---x--7--7---7--7---7\5-------------------------------------------------|
A|-3--3---x--7--7---7--7---5\3-------------------------------------------------|I
E|-----------5--5---5--5-------------------------------------------------------|
 repeat about 5 or so times
            lead                       rhythm  C              Em  C  B   A
e|--------------------I--8--8--8-7--8-7-5------------------------------------|
B|--------------------I--8--8--8-8--8-7-5------------------------------------|
G|--------------------I--9--9--9-9--9-8-6------------------------------------|
D|-------2------------I-10-10-10-9-10-9-7------------------------------------|
A|--3-3-3--3-2-0------I-10-10-10-7-10-9-7------------------------------------|
E|--------------------I--8--8--8---8--7-5------------------------------------|

Thats the intro and the verse and chorus heres the pre chorus
       Dm                                        A#
e|--5------------------6-----------------------------------------------------|
B|--6------------------6-----------------------------------------------------|
G|--7------------------7-----------------------------------------------------|
D|--7------------------8-----------------------------------------------------|           
A|--5------------------8-----------------------------------------------------|
E|---------------------6-----------------------------------------------------|

Thats it its exactly perfect but it doesnt matter because noone knows this song or b 
they r both amazing check out  foundation on myspace!


| /  slide up
| \  slide down
| h  hammer-on
| p  pull-off
| ~  vibrato
| +  harmonic
| x  Mute note
===============================================================================
Tap to rate this tab
# A B C D E F G H I J K L M N O P Q R S T U V W X Y Z