Guitaretab - guitar tabs
Song name
# A B C D E F G H I J K L M N O P Q R S T U V W X Y Z

The B Foundation - Bellyfloppin tab

Most popular song off the new album, and yes said album has only been out 18 hours. Your welcome.

Bridge to cool intro riff
e|----------------------|
B|----------------------|
G|----------------------|
D|----------------------|
A|-7-5------------------|
E|-----5-8----5-5-5-3-0-|

Dah Bridge Chords
e|-7-7-5--8----5-5-5--3-0-|
B|-8-7-5--8----5-5-5--3-0-|
G|-9-7-5--9----5-5-5--4-0-|
D|-9-7-7-10----7-7-7--5-2-|
A|-7-5-7-10----7-7-7--5-2-|
E|-----5--8----5-5-5--3-0-|

Sweet Intro Riff
e|--------------------------|-------------------------|
B|--------------------------|-------------------------|
G|------4-4-2-4-2-----------|------4-2-4-2------------|
D|-2222-----------4---4---2-|-2-2-----------4---4---2-|
A|------------------5---5---|-----------------5---5---|
E|--------------------------|-------------------------|
[ Tab from: http://www.guitaretab.com/t/the-b-foundation/190489.html ]
e|------------------------|-----------------------|
B|------------------------|-----------------------|
G|------------------------|-----------------------|
D|-2222-5-4-5-4---------2-|-2-2-5-4-5-4---------2-|
A|--------------5-2-5-2---|-------------5-2-5-2---|
E|------------------------|-----------------------|

Bridge comes in again...
Then the Verse

Verse (let the chords ring a little longer than u would for a straight reggae song. This 
more of a carousel feeling to it if that makes sense.Upstrokes still of course.)

e|-x-7-x-7-x-7-x-7-x--8-x--8-|
B|-x-8-x-8-x-7-x-7-x--8-x--8-|
G|-x-9-x-9-x-7-x-7-x--9-x--9-|
D|-x-9-x-9-x-7-x-7-x-10-x-10-|
A|-x-7-x-7-x-5-x-5-x-10-x-10-|
E|-----------------x--8-x--8-|

The filler riffs in the backround during the chorus can be played just by  picking the 
of the chord.

Example
e|---------------7-|
B|---------8---8-8-|
G|-----9-----9-----|
D|---9---9---------|
A|-7---------------|
E|-----------------|

There's also some lead guitar during the first verse that I didn't tab, it's pretty hard 
hear over the rhythm guitar. If you really want to know what it is just email at 
and I'll figure it out and send it to you.
Related for Bellyfloppin tab
Advertisement will be closed in 10 seconds