Song name
# A B C D E F G H I J K L M N O P Q R S T U V W X Y Z

The B Foundation - Your Eyes tab

Learned this one on my own, Hope its alright. You strum all the chords. I have a
video on you tube of me playing it,
use it as an example. Hope you enjoy. B foundation Rocks!! Check out my other tab,
Land down under.

http://www.youtube.com/watch?v=KBUMXdRezMM

Tabbed by: Kyle Spradling
Email: bananas9120@yahoo.com

Your eyes- B foundation

Intro
e|-----------------------------------------------------------------|
B|-----------------------------------------------------------------|
G|-----------------------------------------------------------------| 2x
D|--5-5-5-5-5-----5--5-5-5-5-7/9-5--5-5-5-5-7/9/10-9-7-9-7-5-------|
A|------------7-5--------------------------------------------------|
E|-----------------------------------------------------------------|

e|-------------------------------------------------------------------|
B|--8/12-10-8-10-------8-8-----8-8-8-10-8-10/12-13-12-10-8h10p8------|
G|---------------7-7-9-----7h9---------------------------------------| 2x
D|-------------------------------------------------------------------|
A|-------------------------------------------------------------------|
E|-------------------------------------------------------------------|

 Verse

   G    D     B    C
   3	   5	   7	    8
   3	   7	   7	    8
   4	   7	   8	    9       These are the only chords played
   5	   7	   9	    10	    during the verses.
   5	   5	   9	    10
   3	   5	   7	    8


		Chorus
  Guitar 1
    C    D    G                      C     D    G    Em
e|--8----5----3---3---------3--------8-----5----3----0-----|
B|--8----7----3-----3---------3------8-----7----3----0-----|
G|--9----7----4-------4---------4----9-----7----4----0-----|
D|--10---7----5---------5---------5--10----7----5----2-----|
A|--10---5----5----------------------10----5----5----2-----|
E|--8----5----3-3---------3----------8-----5----3----0-----|

  Guitar 2
    C    D    G                      C     D    G    Em
e|--8----10---10---------------------8-----10---10---7-----|
B|--8----10---12---------------------8-----10---12---8-----|
G|--9----11---12---------------------9-----11---12---9-----|
D|--10---12---12---------------------10----12---12---9-----|
A|--10---12---10---------------------10----12---10---7-----|
E|--8----10---10---------------------8-----12---10---7-----|


  Guitar 1
    C    D    G                      C     D    G
e|--8----5----3---3---------3--------8-----5----3---|
B|--8----7----3-----3---------3------8-----7----3---|
G|--9----7----4-------4---------4----9-----7----4---|
D|--10---7----5---------5---------5--10----7----5---|
A|--10---5----5----------------------10----5----5---|
E|--8----5----3-3---------3----------8-----5----3---|


 Guitar 2
    C    D    G                      C     D    G
e|--8----10---10---------------------8-----10---10---|
B|--8----10---12---------------------8-----10---12---|
G|--9----11---12---------------------9-----11---12---|
D|--10---12---12---------------------10----12---12---|
A|--10---12---10---------------------10----12---10---|
E|--8----10---10---------------------8-----12---10---|

  Solo
e|-----------------------------------------------------------------|
B|-----------------------------------------------------------------|
G|-----------------------------------------------------------------| 2x
D|--5-5-5-5-5-----5--5-5-5-5-7/9-5--5-5-5-5-7/9/10-9-7-9-7-5-------|
A|------------7-5--------------------------------------------------|
E|-----------------------------------------------------------------|

e|-------------------------------------------------------------------|
B|--8/12-10-8-10-------8-8-----8-8-8-10-8-10/12-13-12-10-8h10p8------|
G|---------------7-7-9-----7h9---------------------------------------| 2x
D|-------------------------------------------------------------------|
A|-------------------------------------------------------------------|
E|-------------------------------------------------------------------|

Then play the verse and chorus when it comes to it. Enjoy.
Tap to rate this tab
 
# A B C D E F G H I J K L M N O P Q R S T U V W X Y Z