Song name
# A B C D E F G H I J K L M N O P Q R S T U V W X Y Z

The B Foundation - 100 Weight Of Collie Weed tab

Highlighted       Show chord diagrams
-----------------------------------------------------------------------------
	       100 Weight Of Collie Weed - B Foundation
----------------------------------------------------------------------------
Tabbed by:Croady
Email:Croady@yahoo.com

Tuning:standard
      G              F
e|----3-------------1--------------------------------------------------------|
B|----3-------------1--------------------------------------------------------|
G|----4-------------2--------------------------------------------------------|
D|----5-------------3--------------------------------------------------------|
A|----5-------------3--------------------------------------------------------|
E|----3-------------1--------------------------------------------------------|

Basically thats the entire song everything is based around that, its a great song and a 
cover sublime does a cover of this one to but its extemely hard to find.

| /  slide up
| \  slide down
| h  hammer-on
| p  pull-off
| ~  vibrato
| +  harmonic
| x  Mute note
===============================================================================
Tap to rate this tab
# A B C D E F G H I J K L M N O P Q R S T U V W X Y Z