The B Foundation - Arrival Time tab

Arrival
The b Foundation
Tab by
Manuel



e |---7----5----7----7----7----5----4----5----4----5--7--7----|
b |---9----5----9----7----9----5----5----5----5----5--7--9----|
g |---9----6----9----8----9----6----6----6----6----6--8--9----|
d |---9----7----9----9----9----7----6----7----6----7--9--9----|
a |---7----7----7----9----7----7----4----7----4----7--9--7----|
E |--------5---------7---------5---------5---------5--7-------|



this is played only at the first chorus

e |---7--\-----/--7---|
b |---9--\-----/--9---|
g |---9--\--3--/--9---|
d |---9--\--3--/--9---|
a |---7--\--1--/--7---|
E |---0--\-----/------|


chorus

e |---7----7----4----4----5----7----7-----7---|
b |---9----7----6----4----5----9----7-----7---|
g |---9----8----6----5----6----9----8-----8---|
d |---9----9----6----6----7----9----9-----9---|
a |---7----9----4----6----7----7----9-----9---|
E |--------7---------4----5---------7--0--7---|

solo

e |----------------------------------------------------------------|
b |----------------------------------------------------------------|
g |----------------------------------------------------------------|
d |---------9-----------9--------------------------9-----------9---|
a |---9-7-7---9-7-7-9-7---------7-7/9-7-9/11-9-7-7---9-7-7-9-7-----|
E |-------------------------5-5------------------------------------|

e |--------------------------------------------------------------7\---|
b |--------------------------------------------------------------9\---|
g |------------------6--------------------------------------9----9\---|
d |----------------6--------------------------------------9------9\---|
a |-------7--6--4----------------4/6-7-6-4-------7----9-7--------7\---|
E |---5-5----------------5-5-5/7------------5--5----7-----------------|


just listen to the song to learn how to play it, pay special attention to the rhythm



time for my arrival
i can't really say
got no destination
got no place to stay
sometimes i feel lonely
sometimes i  wanna hide
but there's times i feel right at home
with you there by my side


when i woke up in the morning
sunshine blowing through
and i walk out on my doorstep
and i smell that morning too
and itīs time for new beginnings
time for things to change
'couse i've been waiting
way to long for life to rearrange

Chorus:

now that i can levitate
take me to another level it must be faith
a man in a life is to regulate

show up girl
just a little too late
rather take my own chances
on another blind date
but why?
when all i want is you...



time for my arrival
i can't really say
got no destination
and i got no place to stay
and  sometimes i feel lonely
and  sometimes i  wanna hide
but there's times i feel right at home
with you there by my side

Chorus:

now that i can levitate
take me to another level it must be faith
a man in a life is to regulate

show up girl
just a little too late
rather take my own chances
on another blind date
but why?
when all i want is you...






well hope you enjoy it......
sorry for possible mistakes in the lyrics
just waiting for any possible corrections.
Tap to rate this tab
 
# A B C D E F G H I J K L M N O P Q R S T U V W X Y Z