The B Foundation - It Aint Easy tab

this is that intro solo lick that he plays, im not 100% on the exact accuracy.
so dont break into convoltions if you play it and it doesnt sound 100% right thanks

~ = vibrato
b= bend

E---------------------------------------------------------------|
B---------------------------------------------------------------|
G--12h15--------------------------------------------------------|
D-------16p14p12h14h16p14p12h14p12p10h12p10~~-------10~~10-10---|
A--------------------------------------------12p9h12---------12-|
E---------------------------------------------------------------|


E--------------------------------------------------------------|
B--------------------------------------------------------------|
G--12h15--------------12h15b17~~17p15h17b19~~~-----------------|
D-------16p14p12h14h16-----------------------------------------|
A--------------------------------------------------------------|
E--------------------------------------------------------------|

on the 12h15b17~~ its prbably closer to 12h15~~17p15h17b19~~
Tap to rate this tab
 
# A B C D E F G H I J K L M N O P Q R S T U V W X Y Z