Song name
# A B C D E F G H I J K L M N O P Q R S T U V W X Y Z

The B Foundation - The Cure tab

Hey good song from an awesome album written by a great band!!
If u dont own the album Souvenirs, Novelties, and Party Tricks plz get it for ur own good:)

Intro:

E:--------------------------------------------------------------------|
B:--------------------------------------------------------------------|
G:--------------------------------------------------------------------|
D:--2--2-5-0-4---0-0---0---0-0--2-------------------------------------|
A:-------------0-----2---3--------------------------------------------|
E:--------------------------------------------------------------------|

Intro Chords

E:--x---|
B:--x---|
G:--x---|
D:--2---|  Let it ring
A:--2---|
E:--0---|

E:--x---x---|
B:--x---x---|
G:--4---9---|
D:--4---9---| let it ring
A:--2---7---|
E:--x---x---|
Tap to rate this tab
 
# A B C D E F G H I J K L M N O P Q R S T U V W X Y Z