Song name
# A B C D E F G H I J K L M N O P Q R S T U V W X Y Z

The Babies - Alligator tab

artist: the babies
song: alligator
tuning: standard
tabbed by: batesyy

verse/chorus

|--0----2---|
|--2----3---|
|--2----2---|
|--2----0---|
|--0--------| two main patterns of the song
|-----------|  switch between these two.
     
|--2----0---|    you transition faster
|--3----2---|     as the song goes on
|--4----2---|
|--4----2---|
|--2----0---|
|-----------|

leading into the solo though

|--2----2---|    
|--3----3---|     
|--4----2---|
|--4----0---|
|--2--------|
|-----------|

solo

|--9---9--7--5--7--2--5-|
|-----------------------|
|-----------------------| x2
|-----------------------|
|-----------------------|
|-----------------------|

|--12--9--7--5--7--2--5-|
|-----------------------|
|-----------------------| x1
|-----------------------|
|-----------------------|
|-----------------------|

|--9---9--7--5--7--2--5-|
|-----------------------|
|-----------------------| x1
|-----------------------|
|-----------------------|
|-----------------------|


http://en.wikipedia.org/wiki/The_Babies
Tap to rate this tab
 
# A B C D E F G H I J K L M N O P Q R S T U V W X Y Z