Song name
# A B C D E F G H I J K L M N O P Q R S T U V W X Y Z

The Baby Grands - Sleepy Lullaby tab

This is a great song to play for your kids..

 
 4/4
  Gtr I
   
|-------------------------------------------------------|
|-7-7-7---7-7----7-7---7-7----7-7---7-7----7-7---7-7----|
|-7-7-7---7-7----7-7---7-7----7-7---7-7----7-7---7-7----|
|-9-9-9-9-9-9--8-8-8-8-8-8--7-7-7-7-7----6-6-6-6-6------|
|-------------------------------------------------------|
|-------------------------------------------------------|


  
|----------------------------------------------------------|
|---7-7---7-7-----7-7----7-7----7-7----7-7----7-7---7-7----|
|---7-7---7-7-----7-7----7-7----7-7----7-7----7-7---7-7----|
|-5-5-5-5-5-------0-0----0-0----0-0--0-0-0----0-0-0-0-0----|
|--------------9-------7------5-------------5--------------|
|----------------------------------------------------------| repeat


  The first chord into the Chorus but ill figure the rest out later
|------|
|-7----|
|-5----|
|-0----|
|------|
|------|

when playing keep it slow and mellow remember kids are going to sleep with this

Down, up, up, down, up, down.

should be the rhythm for most of it

http://www.facebook.com/pages/The-Baby-Grands/45162228831?ref=search&sid=691929088.1218294036..1
Tap to rate this tab
 
# A B C D E F G H I J K L M N O P Q R S T U V W X Y Z