Guitaretab - guitar tabs
Song name
# A B C D E F G H I J K L M N O P Q R S T U V W X Y Z

The Back Horn - Wana tab

This is my first tab, tell me if I have anything wrong and I'll fix it.
email me at nova_boy_@hotmail.com

I play this song drop d, with capo 3. so everything will be with respect to that.

so... I'm not too sure on the symbols of stuff so heres mine

// means keep picking that string
b is bend.

The tab's kinda bunched together because they notes are all together and I tried not to 
too much. Also, there are two guitars, which is why sometimes it doesn't sound quite right.

Intro
e|-----------|---------------------------------|----------------|
B|----//8b---|---------------------------------|----------------|
G|-----------|------762---54-------------------|--x2------------|
D|-----------|-00---xx2---xx57---8887422227777-|----------------|
A|-----------|-00---540---3257---8887422227777-|----------------|
D|-----------|-00-----0-----57---8887422227777-|----------------|

Verse
e|-------------------------------------------------------------|
B|-------------------------------------------------------------|
G|-------------------------------------------------------------|
D|---00-00-33-33-55-55-77-77-----------------------------------|
A|---00-00-33-33-55-55-77-77-----------------------------------|
D|---00-00-33-33-55-55-77-77-----------------------------------|

e|-------------------------------------------------------------|
B|-------------------------------------------------------------|
G|-------------------------------------------------------------|
D|---00-00-33-33-55-55-7532------------------------------------|
A|---00-00-33-33-55-55-7532------------------------------------|
D|---00-00-33-33-55-55-7532------------------------------------|

e|-------------------------------------------------------------|
B|-------------------------------------------------------------|
G|-------------------------------------------------------------|
D|---00-00-22-22-55-55-77-77-----------------------------------|
A|---00-00-22-22-55-55-77-77-----------------------------------|
D|---00-00-22-22-55-55-77-77-----------------------------------|

e|-------------------------------------------------------------|
B|-------------------------------------------------------------|
G|-----------------------762-----------------------------------|
D|---00-00-33-33-55-55--0xx2-----------------------------------|
A|---00-00-33-33-55-55--0540-----------------------------------|
D|---00-00-33-33-55-55--0--0-----------------------------------|

then

e|-------------------------------------------------------------|
B|-------------------------------------------------------------|
G|-------------------------------------------------------------|
D|---00-00-33-33-55-55-7532------------------------------------|
A|---00-00-33-33-55-55-7532------------------------------------|
D|---00-00-33-33-55-55-7532------------------------------------|

OR
for this part you can be constantly picking or if you can't just do it when i put the 
in. in the song, they keep picking the whole time.
e|----------------------------9-------------10-9-12-//13-//15-//17--|
B|---//10-//9-10-9-10-9-//11---11-10-9--//10------------------------|
G|------------------------------------------------------------------|
D|------------------------------------------------------------------|
A|------------------------------------------------------------------|
D|------------------------------------------------------------------|

e|-------------------------------------------------------------|
B|-------------------------------------------------------------|
G|-------------------------------------------------------------|
D|---00-00-33-33-55-55-77-77-----------------------------------|
A|---00-00-33-33-55-55-77-77-----------------------------------|
D|---00-00-33-33-55-55-77-77-----------------------------------|

e|-------------------------------------------------------------|
B|-------------------------------------------------------------|
G|-------------------------------------------------------------|
D|---00-00-33-33-55-55-7532------------------------------------|
A|---00-00-33-33-55-55-7532------------------------------------|
D|---00-00-33-33-55-55-7532------------------------------------|
[ Tab from: http://www.guitaretab.com/t/the-back-horn/181872.html ]
e|------------------------------------------------------------------------|
B|------------------------------------------------------------------------|
G|------------------------------------------------------------------------|
D|---00-00-22-22-55-55-77-77----0-3-2-7--xx-77-xx-000---------------------|
A|---00-00-22-22-55-55-77-77----0-3-2-7--xx-77-xx-000---------------------|
D|---00-00-22-22-55-55-77-77----0-3-2-7--xx-77-xx-000---------------------|

Chorus
e|-------------------------------------------------------------|
B|-------------------------------------------------------------|
G|-------------------------------------------------------------|
D|---8----10----0----7-----------------------------------------|
A|---8-x8-10-x8-0-x8-7-x8--------------------------------------|
D|---8----10----0----7-----------------------------------------|

e|-------------------------------------------------------------|
B|-------------------------------------------------------------|
G|-------------------------------------------------------------|
D|---8----3----5----7------------------------------------------|
A|---8-x8-3-x8-5-x8-7-x8---------------------------------------|
D|---8----3----5----7------------------------------------------|

e|-------------------------------------------------------------|
B|-------------------------------------------------------------|
G|-------------------------------------------------------------|
D|---8----10----0----7-----------------------------------------|
A|---8-x8-10-x8-0-x8-7-x8--------------------------------------|
D|---8----10----0----7-----------------------------------------|

e|-------------------------------------------------------------|
B|-------------------------------------------------------------|
G|-------------------------------------------------------------|
D|---8----3----10-1010-10--0-----------------------------------|
A|---8-x8-3-x8-10-1010-10--0-----------------------------------|
D|---8----3----10-1010-10--0-----------------------------------|

repeat Verse and Chorus.
except this time the chorus ends with...

e|-------------------------------------------------------------|
B|-------------------------------------------------------------|
G|--------------------------44-44-44-44~-----------------------|
D|---8----3----77-77-77-77~-77-77-77-77~-----------------------|
A|---8-x8-3-x8-77-77-77-77~-55-55-55-55~-----------------------|
D|---8----3----77-77-77-77~------------------------------------|

Bridge

e|------------|
B|------------|
G|---7~-5~-2~-| x3
D|---7~-5~-2~-|
A|------------|
D|------------|

e|---------------------------|
B|---------------------------|
G|---7~-5~-2~-5~-3~-2~-0~----|
D|---7~-5~-2~-5~-3~-2~-0~-3~-|
A|------------------------3~-|
D|---------------------------|

So this part is actually whatever you play on the fret board.
so 12 = 12th fret. (yeah i got lazy.. it's easier for me to put it directly)

e|-----------------------12--15----13--15--16--12--18--15--20--13---------|
B|---------9-11-12---11----13----13------------------------------13--11---|
G|---10-12---------12--9-----------------------------------------------13-|
D|------------------------------------------------------------------------|
A|------------------------------------------------------------------------|
D|------------------------------------------------------------------------|

e|----------------------12-14-15----13-15-16-12-18-|
B|--------------------12----------13---------------|
G|---12-13-12-13-12--------------------------------|
D|------------------13-----------------------------|
A|-------------------------------------------------|
D|-------------------------------------------------|

this part is back to respect with capo

e|---------------------------|
B|---14~------//10-----------|
G|---14~---------------------|
D|---12~---------------------|
A|---------------------------|
D|---------------------------|

then back to this
e|---------------------------------|-------------------------------------|
B|---------------------------------|-------------------------------------|
G|------762---54-------------------|--x4---------------------------------|
D|-00---xx2---xx57---8887422227777-|------8888-7777-8888-7777-88778877---|
A|-00---540---3257---8887422227777-|------8888-7777-8888-7777-88778877---|
D|-00-----0-----57---8887422227777-|------8888-7777-8888-7777-88778877---|

back to Chorus and then it hits into the first bit of the Bridge...
There's a few differences, I'm sure you can figure it out.
If you can't, email me and maybe ill decide to add it in.