Song name
# A B C D E F G H I J K L M N O P Q R S T U V W X Y Z

The Background - Keep On tab

  Hey everyone. Well this is my first tab so bear with me on this. Well I couldn't find 
tab anywhere (and i mean anywhere) so i thought i would figure part of it out. All i 
get was the intro and its not perfect but its very close. so here goes  ;)

e|-------------------------9-10------------------------------------------|
B|--10--10--10-10-10--12-------------------------------------------------|
G|-----------------------------------------------------------------------|
D|------------------------------11--11--11-11-11-12--11h12p11p9----------|
A|---------------------------------------------------------------12--12--|
E|-----------------------------------------------------------------------|


e|----------------------------------------|
B|----------------------------------------|
G|-----------9-11-12-11--12p11p9-----9----|
D|--12-12-12----------------------12------|
A|------------------------------------12--|
E|----------------------------------------|

Then it repeats but the end is a little different.

e|-------------------------9-10------------------------------------------|
B|--10--10--10-10-10--12-------------------------------------------------|
G|-----------------------------------------------------------------------|
D|------------------------------11--11--11-11-11-12--11h12p11p9----------|
A|---------------------------------------------------------------12--12--|
E|-----------------------------------------------------------------------|


e|----------------------------------------|
B|----------------------------------------|
G|-----------9-11-12-11--12p11p9----------|
D|--12-12-12----------------------12------|
A|-----------------------------------12---|
E|----------------------------------------|

Then you play both sections again.

Well that's all i got. Hope everyone likes it. I would greatly appreciate if someone 
tab out the rest of the song. If you have any questions email me at guitarmaniak80@yahoo.com.
Tap to rate this tab
 
# A B C D E F G H I J K L M N O P Q R S T U V W X Y Z