Song name
# A B C D E F G H I J K L M N O P Q R S T U V W X Y Z

The Bags - Tick Panic tab

-------------------------------------------------------------------------------
			     Tick Panic - The Bags
-------------------------------------------------------------------------------
Tabbed by: ACDCfan248

Tuning:Standard (EADGBE)

Intro Riff:
e|-----------------------|
B|-----------------------|
G|--4-4--7-7--9-9-X 8----|  X 3
D|--4-4--7-7--9-9--------|
A|--2-2--5-5--7-7--------|
E|-----------------------|

On 3rd time add this on the end:
e|------------------|
B|------------------|
G|--14-14--16-16----|
D|--14-14--16-16----|
A|--12-12--14-14----|
E|------------------|

Verse 1:
e|-------------------|
B|-------------------|
G|--4----7----4------| X 2
D|--4-X8-7-X8-4-X8---|
A|--2----5----2------|
E|-------------------|

Verse 2:
e|-----------------------------------------|
B|-----------------------------------------|
G|--6----9----6----9----4----7----4--------|
D|--6-X8-9-X8-6-X8-9-X8-4-X8-7-X8-4-X8-----|
A|--4----7----4----7----2----5----2--------|
E|-----------------------------------------|

Order:

Intro Riff
Verse 1
Verse 2
Intro Riff
Verse 1
Verse 2
Intro Riff
Verse 2
(Solo) Guitar 2 play Intro Riff
Verse 2
Verse 3:
e|--------------------|              ~ Means Hold that note
B|--------------------|
G|--4~--5~--6~--7~----|
D|--4~--5~--6~--7~----| X 2
A|--2~--3~--4~--5~----|
E|--------------------|

Outro:
e|---------------------------------|
B|---------------------------------|
G|--4~--7~--4~--7~--474747474--4---|
D|--4~--7~--4~--7~--474747474--4---|
A|--2~--5~--2~--5~--252525252--2---|
E|---------------------------------|


That's It! Enjoy!
===============================================================================
Tap to rate this tab
# A B C D E F G H I J K L M N O P Q R S T U V W X Y Z