Song name
# A B C D E F G H I J K L M N O P Q R S T U V W X Y Z

The Bakerton Group - Keyboards And Planets tab

-------------------------------------------------------------------------------
			    Keyboards and Planets - The Bakerton Group
                                        www.pro-rock.com
-------------------------------------------------------------------------------


2.06.08
Tabbed by: Tyler Eibl
Email: Tyler420@gmail.com

Tuning: Standard


Intro

e|----------------------------------------------------------------------|
B|o---------------------------------------------------------------------|
G|----------------------------------------------------------------------|
D|----------------------------5-5-6-6-7-7-7-----------------------------|
A|o---0-0-0-3-3-3-6-6-6-7-7-7---------------3-3-3-5-5-5-6-6-6-5-3-------|
E|----------------------------------------------------------------5-3---|


e|----------------------------------------------------------------------|
B|o---------------------------8-8-9-9-10-10-----------------------------|
G|----------5-5-5-8-8-8-9-9-9---------------5-5-5-7-7-7-8-8-8-7-5-------|
D|----7-7-7-------------------------------------------------------7-5---|
A|o---------------------------------------------------------------------|
E|----------------------------------------------------------------------|

e|-------------------------------------------------|
B|o------------------------------------------------|
G|-------------------------------------------------|
D|-------------------------------------------------|
A|o---------------------3-4-5---5------------------|
E|------5---3-5--3-5--5-----------0-3-4-5----------|
  p.m.  *   * *  * *  * * *       * * * *

e|-----------------------------------------------------------------------------------------------|
B|o----------------------------------------------------------------------------------------------|
G|-----------------5----------------------------------------17--------------------------17-------|
D|-----7-7p5-7-5-7---7---7-7p5----5----------------------19-----19-17-19-17-19-17-19-17----19----|
A|o----------------------------7----7-5--5-3-5-5-3-0---------------------------------------------|
E|--------------------------------------------------/5-------------------------------------------|

e|-----------------------------------------------------------------------------------|
B|o------20--20----------------------------------------------------------------------|
G|----19b----19br-17-19-17-19b-19-17-19-17-19fb-19-17-19-17--------------------------|
D|---------------------------------------------------------19-17-19~-19~-19~---------|
A|o----------------------------------------------------------------------------------|
E|-----------------------------------------------------------------------------------|


e|----------------------------------------------------------------------|
B|o---------------------------------------------------------------------|
G|----------------------------------------------------------------------|
D|----------------------------5-5-6-6-7-7-7-----------------------------|
A|o---0-0-0-3-3-3-6-6-6-7-7-7---------------3-3-3-5-5-5-6-6-6-5-3-------|
E|----------------------------------------------------------------5-3---|


e|----------------------------------------------------------------------|
B|o---------------------------8-8-9-9-10-10-----------------------------|
G|----------5-5-5-8-8-8-9-9-9---------------5-5-5-7-7-7-8-8-8-7-5-------|
D|----7-7-7-------------------------------------------------------7-5---|
A|o---------------------------------------------------------------------|
E|----------------------------------------------------------------------|


e|------------------------------------------------------|
B|o---------------------5b------------------------------|
G|----------------------5b------------------------------|
D|-------7---5-7----7------7-5-7----7-7-5-7-------------|
A|o----0---0------0---0-----------0---------5~----------|
E|------------------------------------------------------|

e|--------------------------8-------------------------------|
B|o-------10---8--10---10-----10-8-10---10-10-8-10----------|
G|-----(9)--(9)-----(9)--(9)---------(9)-----------7~-------|
D|----------------------------------------------------------|
A|o---------------------------------------------------------|
E|----------------------------------------------------------|


e|------------------------------------------------------|
B|o-------9--9\-------9--9\-----------------------------|
G|-----/10--10\----/10--10\--------1-3-3----------------|
D|-----------------------------1-3-------1-3------------|
A|o-----------------------------------------------------|
E|------------------------------------------------------|


e|-----------------------------------------------|
B|o----------------------------------------------|
G|--------1-3-3-----1-3-3-----1-3-3--------------|
D|----1-3-------1-3-------1-3-------1-3----------|
A|o----------------------------------------------|
E|-----------------------------------------------|


e|------------------------------------------------------------------|
B|o-----------------------------------------------------------------|
G|------------------------5--------------------------------5--------|
D|----7-7p5-7p5-7p5-7p5-7----7-5---5-7---7-5---5-7-7-5-7-5---7-7----|
A|o------------------------------7-----------7----------------------|
E|------------------------------------------------------------------|


e|------------------------------------------------------------------|
B|o-----------------------------------------------------------------|
G|----19fb-19-17-19-17-19-17-19fb-19-17-19-17-------------17b-------|
D|--------------------------------------------19-17-19-19----19-----|
A|o-----------------------------------------------------------------|
E|------------------------------------------------------------------|


e|-----------------------------------|-------|------------------------|
B|o----------------------------------|---1~--|------------------------|
G|--------------------17-17----------|---2~--|---------------7~-------|
D|--------17-19-19-17-------19-19~---|-------|---7---7---7------------|
A|o----19----------------------------|-------|------------------------|
E|-----------------------------------|-------|------------------------|
                                       ring


e|----------------------------------------------------------------------------------------------|
B|o-------------------------------------------19b-19b-19b-19b~--------------------------17b-----|
G|--------------------------------------------19b-19b-19b-19b~--------------------------17b-----|
D|-----19-19~-(17)---17-19-19~(19)~(19)~~~\------------------------17-19-19-17-19-17-19-----19~-|
A|o---------------19--------------------------------------------19------------------------------|
E|----------------------------------------------------------------------------------------------|

e|---------------------------------------------------------------------------------------------|
B|o-----------------------------------17-17b-------19b~(19)~~(19)~~-19fb--19p17h19p17~~--------|
G|------------------------------------17-17b-------19b~(19)~~(19)~~~19fb--19p17h19p17~~--------|
D|-----19-17----17-19--19-17----17-19--------19-17-------------------------------------19~-----|
A|o----------19--------------19----------------------------------------------------------------|
E|---------------------------------------------------------------------------------------------|
Tap to rate this tab
# A B C D E F G H I J K L M N O P Q R S T U V W X Y Z