Song name
# A B C D E F G H I J K L M N O P Q R S T U V W X Y Z

The Bambi Molesters - Mindbender tab

Author/Artist: The Bambi Molesters
Title: Mindbender
Album: As the Dark Wave Swells
Email: jeremy.2@hotmail.com

Tunning is normal (EADGBE)

Intro 0:00  0:07
------------------|---|-------------------------------------------------------|
------------------|---|-------------------------------------------------------|
------------------|---|-------------------------------------------------------|
------------------|-x2|-------------------------------------------------------|
-3\0000-3\00000000|---|-------------------------------------------------------|
------------------|---|-------------------------------------------------------|

Part 1 0:08  0:18
------------------------------------------------------------------------------|
------------------------------------------------------------------------------|
------------------------------------------------------------------------------|
------------------------------------------------------------------------------|
---------------------------3-8-77777777-333-55555-3-22222-10-8-7-12\----------|
-55555-0000-5555-0000-5555----------------------------------------------------|

Part 2 0:19  0:29
------------------------------------------------------------------------------|
------------------------------------------------------------------------------|
------------------------------------------------------------------------------|
------------------------------------------------------------------------------|
---------------------------3-8-77777777-3-55555-3-2-3-2-0---0000---0----------|
-55555-0000-5555-0000-5555--------------------------------3------3------------|

Part 3 0:30  0:40
------------------------------------------------------------------------------|
------------------------------------------------------------------------------|
------2-5---5------------------------2-555---2-9999-7777-5555-4444------------|
-3333-----3---3---555-2---55-22-3333-------3----------------------------------|
----------------3-------3-----------------------------------------------------|
------------------------------------------------------------------------------|

Part 4 0:40  0:51
------------------------------------------------------------------------------|
------------------------------------------------------------------------------|
------------------------------------------------------------------------------|
------------------------------------------------------------------------------|
---------------------------3-8-77777777-3-55555-3-2-3-2-0---0000---0----------|
-55555-0000-5555-0000-5555--------------------------------3------3------------|

Part 5 0:51  1:19
------------------------------------------------------------------------------|
------------------------------------------------------------------------------|
------------------------------------------------------------------------------|
-77-6-7-6-77-6-3-2---2---2------77-6-7--7/10-10101010-5-2---5-22--------------|
-------------------3---3---33-----------------------------3-------------------|
------------------------------------------------------------------------------|


------------------------------|-----------------------------------------------|
------------------------------|-----------------------------------------------|
------------------------------|-----------------------------------------------|
-77-6-7-6-77-6-3-2---2---2--2-|-2-1-2-3-2-1-2-3-1-2-1-2-3-2-1-2-3-1-2222------|
-------------------3---3---3--|-----------------------------------------------|
------------------------------|-----------------------------------------------|


------------------------------------------------------------------------------|
------------------------------------------------------------------------------|
------------------------------------------------------------------------------|
-0000-------------------------------------------------------------------------|
------3333-2222-000000000-----------------------------------------------------|
------------------------------------------------------------------------------|

Part 6 1:19  1:40
------------------------------------------------------------------------------|
------------------------------------------------------------------------------|
-----------------------------------------------------------------------2------|
-----------------------------------------------------------------------2------|
-0-2-3-5-3-2-3-0--0-2-3-5-7-3-0---5-7-8-10-12-15-14-12---0-2-3-5-7-3-0-0------|
------------------------------------------------------------------------------|


Then part 3
     Part 1 and 2 and outro:

A 777777777-|-3\0000-3\0000000| 3\0000  0
                               E|       3




www.thebambimolesters.com
Tap to rate this tab
 
# A B C D E F G H I J K L M N O P Q R S T U V W X Y Z