Song name
# A B C D E F G H I J K L M N O P Q R S T U V W X Y Z

The Band Apart - I Love You Wasted Junks And Greens tab

-------------------------------------------------------------------------------
            I Love you Wasted junks & Greens  - The Band Apart
-------------------------------------------------------------------------------
Tabbed by: GrooveBear
Email: GrooveBear@gmx.net


BPS = 160

Part A

     E     Q.   h          H   E      E  Q     E   Q.   H
e|---.----------------||-------------.-----||--.--------------|
B|---5----------------||-------------9h-10-||--5--------------|
G|---7-----P----P-----||---P---P-----x-----||--7---P----P-----|
D|---7----------------||-------------9-----||--7--------------|
A|---5----------------||-------------7-----||--5--------------|
E|--------------------||-------------------||-----------------|

     E   Q.  Q  E  E
e|-------------------|
B|---.---------------|
G|---6---P---P--6h-7-|
D|---x----------x----|
A|---7----------7----|
E|---5----------5----|


Part B

    E  H    E  S  E   S       E   H   Q.        E  H    E  S  E   S  
e|--.-------.-----.------||---.-------------||--.-------.-----.------|
B|--5-------5-----5------||---5-------------||--5-------5-----5------|
G|--7--P----7--P--7---P--||---7---P---------||--7--P----7--P--7---P--|
D|--7-------7-----7------||---7-------9-----||--7-------7-----7------|
A|--5-------5-----5------||---5-------7-----||--5-------5-----5------|
E|-----------------------||-----------------||-----------------------|

     E   Q.  Q  E  E      
e|-------------------| 
B|---.---------------| 
G|---6---P---P--6h-7-| 
D|---x----------x----| 
A|---7----------7--L-| 
E|---5----------5--L-| 

    E  H    E  S  E   S       E   H   Q.        E  H    E  S  E   S  
e|--.-------.-----.------||---.-------------||--.-------.-----.------|
B|--5-------5-----5------||---5-------------||--5-------5-----5------|
G|--7--P----7--P--7---P--||---7---P---------||--7--P----7--P--7---P--|
D|--7-------7-----7------||---7-------9-----||--7-------7-----7------|
A|--5-------5-----5------||---5-------7-----||--5-------5-----5------|
E|-----------------------||-----------------||-----------------------|

   S  S  S  S  S  S  S  S  S  S  S  S  S  S  S  S
e|---------------------------------------------------|
B|--5-----5-----5-----5-----5-----5-----5-----5------|
G|--7--P--7--P--7--P--7--P--7--P--7--P--7--P--7--P---|
D|--7-----7-----7-----7-----7-----7-----7-----7------|
A|--5-----5-----5-----5-----5-----5-----5-----5------|
E|---------------------------------------------------|


Part C

     S  E  S  E  Q  E  E  E       S  E  S  E  Q  E  E  E
e|---------------------------||---------------------------|
B|---------------------------||---------------------------|
G|---6--P--6--P--6--6--6--6--||---9--P--9--P--9--9--9--9--|
D|---7-----7-----7--7--7--7--||---9-----9-----9--9--9--9--|
A|---------------------------||---------------------------|
E|---7-----7-----7--7--7--7--||---9-----9-----9--9--9--9--|


Part D

     S  E  S  E  Q  E  E  E       S  E  S  E  Q  E  E  E    
e|---------------------------||---------------------------|
B|---------------------------||---------------------------|
G|---6--P--6--P--6--6--6--6--||---9--P--9--P--6--6--6--6--|
D|---7-----7-----7--7--7--7--||---9-----9-----7--7--7--7--|
A|---------------------------||---------------------------|
E|---7-----7-----7--7--7--7--||---9-----9-----7--7--7--7--|


Part E
    E   S  E  S  E  S  E. Q        E  S  E  S  E  E  E  E  E
e|------5-----5-----5-----5----||-----5-----5-----------------|
B|------3-----3-----5-----5----||-----3-----3-----5--5--5--5--|
G|--P---4--P--4--P--6--P--6----||--P--4--P--4--P--7--7--7--7--|
D|-----------------------------||-----------------7--7--7--7--|
A|-----------------------------||-----------------------------|
E|-----------------------------||-----------------------------|


Part E.2

   E   S  E  S  E  S  E. Q         E  S  E  S  E  E  Q.
e|------5-----5-----5-----5----||-----5-----5-----5-----|
B|------3-----3-----5-----5----||-----5-----5-----5-----|
G|--P---4--P--4--P--6--P--6----||--P--7--P--7--P--7--P--|
D|-----------------------------||-----------------------|
A|-----------------------------||-----------------------|
E|-----------------------------||-----------------------|



Part F

                |----3----|                    |----3----|     
    Q.     S  S Q    Q    Q        Q.     S  S Q    Q    Q 
e|-------------------5---------||-------------------5---------|
B|---------5--------------5----||---------5--------------5----|
G|--P------6h-7-L--------------||--P------7p-6-L--------------|
D|-----------------------------||-----------------------------|
A|-----------------------------||-----------------------------|
E|-----------------------------||-----------------------------|


Part G
 
    |----3----|    |----3----|         |----3----|    |----3----|
    Q    Q    Q    Q    Q    Q         Q    Q    Q    Q    Q    Q
e|--5----5----5----5----5----5----|----5----5----5----5----5----5--|
B|--5----5----5----5----5----5----|----5----5----5----5----5----5--|
G|--6----6----6----6----6----6----|--6g7----7----7----7----7----7--|
D|--------------------------------|--------------------------------|
A|--------------------------------|--------------------------------|
E|--------------------------------|--------------------------------|


Part H

    E     Q.   h          H   E      E  Q     E   Q.   H
e|---.----------------||-------------.-----||--.--------------|
B|---5----------------||-------------9h-10-||--5--------------|
G|---7-----P----P-----||---P---P-----x-----||--7---P----P-----|
D|---7----------------||-------------9-----||--7--------------|
A|---5----------------||-------------7-----||--5--------------|
E|--------------------||-------------------||-----------------|

    E   Q.  Q  E  E  E
e|---------------------|
B|---.---------------10|
G|---6---P---P--6h-7---|
D|---x----------x------|
A|---7----------7------|
E|---5----------5------|


Part I

    E  E  E   E   H      H  H      W
e|-------------------||--------||-----|
B|--9----------------||--------||-----|
G|-----9-------------||--------||--9--|
D|--------9--11---L--||--9--7--||-----|
A|-------------------||--------||-----|
E|-------------------||--------||-----|

    S  S  S  S  S  S  S  S  S  S  S  S  S  S  S
e|-----------------------------------------------|
B|-----------------------------------------------|
G|--6h-7p-6h-7p-6h-7p-6h-7p-6h-7p-6h-7p-6h-7p-6--|
D|-----------------------------------------------|
A|-----------------------------------------------|
E|-----------------------------------------------|


Part J

    E     Q.   h          H   E      E  Q     E   Q.   H
e|---.----------------||-------------.-----||--.--------------|
B|---5----------------||-------------9h-10-||--5--------------|
G|---7-----P----P-----||---P---P-----x-----||--7---P----P-----|
D|---7----------------||-------------9-----||--7--------------|
A|---5----------------||-------------7-----||--5--------------|
E|--------------------||-------------------||-----------------|

     E   Q.  Q  E  E     E   Q.   H         W
e|-------------------||--.--------------||-----|
B|---.---------------||--5--------------||-----|
G|---6---P---P--6h-7-||--7---P----P-----||--P--|
D|---x----------x----||--7--------------||-----|
A|---7----------7----||--5--------------||-----|
E|---5----------5----||-----------------||-----|
   
    |--3--|  |--3--|  |--3--|  |--3--|   
    E  E  E  E  E  E  E  E  E  E  E  E     H.           Q 
e|--0--0--0--0--0--0--0--0--0--0--0--0--|---------------0----|
B|--2--2--2--2--2--2--0--0--0--0--0--0--|---------------0----|
G|--2--2--2--2--2--2--2--2--2--2--2--2--|--2------------2----|
D|--0--0--0--0--0--0--0--0--0--0--0--0--|--2------------2----|
A|--------------------------------------|--------------------|
E|--------------------------------------|--2-----------------|







                  Song Structur

8 X Part A
1 X Part B
3 X Part C  
1 X Part D
4 X Part A
1 X Part B
3 X Part C  
1 X Part D
3 X Part E
1 X Part E.2
7 X Part F
1 X Part G
1 X Part A
1 X Part H
1 X Part I 
1 X Part J 
And for the rest of the Song Part C X 3 and D X 1
Repeat that a couple of times.


Have Fun

http://www.asiangothic.org/band/



Duration Legend
_______________
W - whole
H - half
Q - quarter
E - 8th
S - 16th

Tablature Legend
________________
L - tied note
x - dead note
h - hammer on
p - pull off
S - shift slide
s - legato slide
/ - slide into from below or out of upwards
\ - slide into from above or out of downwards
~ - vibrato
P - Pause
g - grace note
Tap to rate this tab
 
# A B C D E F G H I J K L M N O P Q R S T U V W X Y Z