Song name
# A B C D E F G H I J K L M N O P Q R S T U V W X Y Z

The Band Apart - I Love You Wasted Junks And Greens tab

-------------------------------------------------------------------------------
            I Love you Wasted junks & Greens  - The Band Apart
-------------------------------------------------------------------------------

Tabbed by: GrooveBear
Email: GrooveBear@gmx.net

BPS = 160

8 Bars Paus

Part A
     E  H  Q.     Q  E   E  E  E   E  E      E  H  Q      E  Q  E  E  E  Q
e|------------||-------------------------||-----------||--------------------|
B|---5--------||-------------------------||--5--------||--5-----5-----------|
G|---6--------||-----7s--6---------------||--6--------||--6-----6-----7-----|
D|---4--P--P--||--P---------P--9s--7--P--||--4--P--P--||--7--P--7--P--7h-9--|
A|---5--------||-----9s--7---------------||--5--------||--------------7-----|
E|------------||-------------------------||-----------||--------------------|

     E  H  Q.     Q  E   E  E  E   E  E      E  H  E  E      E  E  E  Q  E. E.
e|------------||-------------------------||--------------||--------0-----------|
B|---5--------||-------------------------||--5-----------||--0--------------0--|
G|---6--------||-----7s--6---------------||--6-----------||-----6-----6--------|
D|---4--P--P--||--P---------P--9s--7--P--||--4--P--P--7--||--------------7-----|
A|---5--------||-----9s--7---------------||--5-----------||--------------------|
E|------------||-------------------------||--------------||--------------------|

 


Part B
    E   E  E   E   E   E   E   E      E   E   E  E   E   E  Q
e|---------------------12--9------||--------------------------|
B|---------10-----------------10--||--12---------10-----------|
G|--7s--9------9s--11-------------||------9--11---------7-----|
D|--------------------------------||-----------------P--7h-9--|
A|--------------------------------||--------------------7-----|
E|--------------------------------||--------------------------|

    E   E  E   E   E   E   E   E      E   Q    E  E  E   Q
e|--------------------------------||---------------------0--|
B|---------10----------12--9------||--------------0---------|
G|--7s--9------9s--11----------9--||------------------------|
D|--------------------------------||--11------11--L--11--L--|
A|--------------------------------||------12----------------|
E|--------------------------------||------------------------|



Part C
    S  E  S  E  Q  E  E  E      S  E  S  E  Q  E  E  E
e|--5-----5-----5--5--5--5--||--7-----7-----7--7--7--7--|
B|--5-----5-----5--5--5--5--||--7-----7-----7--7--7--7--|
G|--7--P--7--P--7--7--7--7--||--9--P--9--P--9--9--9--9--|
D|--------------------------||--------------------------|
A|--------------------------||--------------------------|
E|--------------------------||--------------------------|

Part D
    S   E  S   E  Q   E   E   E       S  E  S  E  E  E.  E.  E
e|--12-----12-----12--12--12--12--||-----------------------------|
B|--14-----14-----12--12--12--12--||--9-----9--------9---10--12--|
G|------P------P------------------||--9-----9-----9--9---11--13--|
D|--------------------------------||-----P-----P--9--------------|
A|--------------------------------||-----------------------------|
E|--------------------------------||-----------------------------|


Part E
    E  S  E  S  E  Q  Q      E  S  E  S  E S  S  S  S  E  E
e|-----------------------||----------------------------------|
B|-----------------------||----------------------------------|
G|-----------------------||----------------------------------|
D|--P-----P-----P--------||--P-----P-----P-------------------|
A|-----2-----2-----4--5--||-----2-----2-------------2h-4--5--|
E|-----------------------||----------------0h-2h-3-----------|

   E  S  E  S  E  Q  Q       E  S  E  S  E  S  S  S  S  S  S  S  S
e|-----------------------||----------------------------------------|
B|-----------------------||----------------------------------------|
G|-----------------------||-----------------2h-4p-2p-0----------2--|
D|--P-----P-----P--------||--P-----P-----P--------------2h-4h-5----|
A|-----2-----2-----4--5--||-----2-----2----------------------------|
E|-----------------------||----------------------------------------|


   E  S  E  S  E  Q  Q     E  S  E  S  E S  S  S  S  S  S E
e|---------------------||------------------------------------|
B|---------------------||------------------------------------|
G|---------------------||------------------------------------|
D|--P----P----P--------||--P-----P-----P---------------------|
A|----5----5-----7--9--||-----5-----5-------------2h-4--5----|
E|---------------------||----------------3h-5h-7----------5--|


                           |--3--|  |--3--|  
   E  S  E  S  E  Q  Q     Q  Q  Q  Q  Q  Q
e|---------------------||-----------5-------|
B|---------------------||--------3----4-----|
G|---------------------||--P--4----------0--|
D|--P----P----P--------||-------------------|
A|----5----5-----7--9--||-------------------|
E|---------------------||-------------------|


Part F
                              
                              |----3----|
    W       W      W       H  Q    Q    Q
e|--10--||-----||------||-------------------|
B|--10--||-----||--10--||-----10h--12p--10--|
G|------||--9--||------||--P--11h--12p--11--|
D|------||-----||------||-------------------|
A|------||-----||------||-------------------|
E|------||-----||------||-------------------|

   W       W      W        H    E.  S    Q
e|--10--||-----||------||--------------------|
B|--10--||-----||--10--||--12--10h--12p--10--|
G|------||--9--||------||--12--11h--12p--11--|
D|------||-----||------||--------------------|
A|------||-----||------||--------------------|
E|------||-----||------||--------------------|
                              |----3----|
    W       W      W       H  Q    Q    Q
e|--10--||-----||------||-------------------|
B|--10--||-----||--10--||-----10h--12p--10--|
G|------||--9--||------||--P--11h--12p--11--|
D|------||-----||------||-------------------|
A|------||-----||------||-------------------|
E|------||-----||------||-------------------|

    W       W      W      W
e|--10--||-----||-----||-----|
B|--10--||-----||-----||-----|
G|------||--9--||--P--||--P--|
D|------||-----||-----||-----|
A|------||-----||-----||-----|
E|------||-----||-----||-----|



Part G

    E  H  Q.     Q  E   E  E  E   E  E      E  H  Q      E  Q  E  E  E  Q
e|------------||-------------------------||-----------||--------------------|
B|---5--------||-------------------------||--5--------||--5-----5-----------|
G|---6--------||-----7s--6---------------||--6--------||--6-----6-----7-----|
D|---4--P--P--||--P---------P--9s--7--P--||--4--P--P--||--7--P--7--P--7h-9--|
A|---5--------||-----9s--7---------------||--5--------||--------------7-----|
E|------------||-------------------------||-----------||--------------------|

     E  H  Q.     Q  E   E  E  E   E  E      E  H  E  E      E  E  E  Q  E. E.
e|------------||-------------------------||--------------||--------0-----------|
B|---5--------||-------------------------||--5-----------||--0--------------0--|
G|---6--------||-----7s--6---------------||--6-----------||-----6-----6--------|
D|---4--P--P--||--P---------P--9s--7--P--||--4--P--P--7--||--------------7-----|
A|---5--------||-----9s--7---------------||--5-----------||--------------------|
E|------------||-------------------------||--------------||--------------------|

     E  H  Q.     Q  E   E  E  E   E  E      E  H  E  E      E  E  E  Q  E. E.
e|------------||-------------------------||--------------||--------0-----------|
B|---5--------||-------------------------||--5-----------||--0--------------0--|
G|---6--------||-----7s--6---------------||--6-----------||-----6-----6--------|
D|---4--P--P--||--P---------P--9s--7--P--||--4--P--P--7--||--------------7-----|
A|---5--------||-----9s--7---------------||--5-----------||--------------------|
E|------------||-------------------------||--------------||--------------------|



Part H

 
    E   E   E  S   S  E  E  E   S   S      E  E  E  S  S E  E  E  E
e|----------9--12p-9-------------------||-----------4s-2----------0--|
B|------10------------------10--12p-10-||--------5-------------2-----|
G|--11-------------------9-------------||-----6-------------2--------|
D|-------------------11----------------||--7-------------4-----------|
A|-------------------------------------||----------------------------|
E|-------------------------------------||----------------------------|

    E  E  E  S S E  E  E    E      E  E   E  E  E   E  E   E       E  E  H.     W
e|-------------2----4----------||--5---------9-------------12--||-----------||-----|
B|-----------------------------||----------------------10------||-----------||-----|
G|--1--2-----2---4-----4--4g6--||-----6S--7-----9--11----------||--9--------||--P--|
D|--------4--------------------||------------------------------||-11--P--P--||-----|
A|-----------------------------||------------------------------||--9--------||-----|
E|-----------------------------||------------------------------||-----------||-----|



Part I

    |---3---|   |---3---| 
    E   E   E   E   E   E   Q  Q       H.   Q
e|---------------------------------||----------|
B|--10--10--10--10--10--10--9--10--||--12--14--|
G|--11--11--11--11--11--11--9---9--||--13--14--|
D|---------------------------------||----------|
A|---------------------------------||----------|
E|---------------------------------||----------|






                         Song Structur

8Bars Pause
3 X Part A
2 X Part B
3 X Part C
1 X Part D
2 X Part A
3 X Part C
1 X Pard D
1 X Part E
1 X Part F
1 X Part G
1 X Part H
1 X Part I
And for the rest of the Song Part C X 3 and D X 1
Repeat that a couple of times.


Have Fun


http://www.asiangothic.org/band/



Duration Legend
_______________
W - whole
H - half
Q - quarter
E - 8th
S - 16th

Tablature Legend
________________
L - tied note
x - dead note
h - hammer on
p - pull off
S - shift slide
s - legato slide
/ - slide into from below or out of upwards
\ - slide into from above or out of downwards
~ - vibrato
P - Pause
g - grace note
Tap to rate this tab
 
# A B C D E F G H I J K L M N O P Q R S T U V W X Y Z