Song name
# A B C D E F G H I J K L M N O P Q R S T U V W X Y Z

The Band Perry - Better Dig Two tab

"Better Dig Two"
The Band Perry

Tabbed by: G6Muzik 
Tuning: E A D G C e

Intro (Banjo):

e|------0-5-0-7-0-8------0-5-0-3-0-3p0h3h5-----------------------------------| 
C|----0----------------0-----------------------------------------------------| 
G|--2----------------2-------------------------------------------------------| 
D|---------------------------------------------------------------------------| 
A|---------------------------------------------------------------------------| 
E|---------------------------------------------------------------------------| 


Chords for rest of song:

    Am  C   D   G
e|--0--(3)--2---3-------| 
C|--0---0---2---2-------| 
G|--2---0---2---0-------| 
D|--2---2---0---0-------| 
A|--0---3---0---2-------| 
E|--0-----------3-------| 

Tap to rate this tab
# A B C D E F G H I J K L M N O P Q R S T U V W X Y Z