Song name
# A B C D E F G H I J K L M N O P Q R S T U V W X Y Z

The Band Perry - If I Die Young tab

-------------------------------------------------------------------------------
                             If I Die Young Ė The Band Perry
-------------------------------------------------------------------------------
Tabbed by: Denise
E-mail:Denise.Kontos@att.net

Tuning: None

e|-2-4-2----2-4-2-0----------4-2-0-0-0-2-4-5-4---4-4-2-0-2-0-4-0---4-5-4-4-2-|
B|-------2-----------2-0-----------------------------------------------------|
G|---------------------------------------------------------------------------|
D|---------------------------------------------------------------------------|
A|---------------------------------------------------------------------------|
E|---------------------------------------------------------------------------|
If I die young, bury me in satin. Lay me down on a bed of roses sink me in the river at 
dawn, send me away

e|-2-2-2-2-4-2-0---4-0---------2-4-2-0-2-0-0-2-4-2-0-------0-2-4-2-0-2-2-2-2-|
B|---------------------2-0----------------------------2-0--------------------|
G|---------------------------------------------------------------------------|
D|---------------------------------------------------------------------------|
A|---------------------------------------------------------------------------|
E|---------------------------------------------------------------------------|
away with the words of a love song, uh oh uh oh Lord make me a rainbow Iíll shine down 
on my mother. Sheíll know Iím safe with you when she stands

e|-2-4-4-5-4-4-4-2-4----4-4-4-4-4-4-4-4-2-2-0-0-0------2-2-2-2-2-2-2-2-4-2-0-|
B|------------------------------------------------2-0------------------------|
G|---------------------------------------------------------------------------|
D|---------------------------------------------------------------------------|
A|---------------------------------------------------------------------------|
E|---------------------------------------------------------------------------|
Under my colors. Oh well, life isnít always what you think it ought to be you know. 
Ainít even gray but she buries her baby


e|-0-4-0-0-0-4-2---0-0-4-0-0-0-----------------------------------------------|
B|-----------------------------2-0-------------------------------------------|
G|---------------------------------------------------------------------------|
D|---------------------------------------------------------------------------|
A|---------------------------------------------------------------------------|
E|---------------------------------------------------------------------------|
A sharp knife of a short life. Well Iíve had just enough time (If I die youngÖ)

e|--2-4ó2-2-0-----0-0-0---------------------------0-2-4-2-0-----4-0----------|
B|-----------2-2-----------2-0----2-2-2-2-2-0-0-------------2----------------|
G|---------------------------------------------------------------------------|
D|---------------------------------------------------------------------------|
A|---------------------------------------------------------------------------|
E|---------------------------------------------------------------------------|
[BRIDGE] So put on your best boys and Iíll wear my pearls, what I never did is done. A 
penny for my thoughts oh no

e|--0-2-2-2-2-2-0--------------------------0-2-4-2-0-0-0-2-2-2-2-0-----------|
B|-----------------4-4-4-4-4-4-6-6-6-6-4-------------------------------------|
G|---------------------------------------------------------------------------|
D|---------------------------------------------------------------------------|
A|---------------------------------------------------------------------------|
E|---------------------------------------------------------------------------|
Iíll sell them for a dollar. Theyíre worth so much more after Iím a goner. And maybe 
then youíll hear the words Iíve been singing

e|---------------------------------------------------------------------------|
B|--4-4-4-4-4-4-4-6-6-6-4----------------------------------------------------|
G|---------------------------------------------------------------------------|
D|---------------------------------------------------------------------------|
A|---------------------------------------------------------------------------|
E|---------------------------------------------------------------------------|
Funny when youíre dead how people start listening.

e|---------------------------------------------------------------------------|
B|---------------------------------------------------------------------------|
G|---------------------------------------------------------------------------|
D|---------------------------------------------------------------------------|
A|---------------------------------------------------------------------------|
E|---------------------------------------------------------------------------|


************************************

| /   slide up
| \   slide down
| h   hammer-on
| p   pull-off
| ~   vibrato
| +   harmonic
| x   Mute note
| b   Bend
| pb  Pre-bend
| br  Bend release
| pbr Pre-bend release
| brb Bend release bend

************************************
Tap to rate this tab
# A B C D E F G H I J K L M N O P Q R S T U V W X Y Z