Song name
# A B C D E F G H I J K L M N O P Q R S T U V W X Y Z

The Band Perry - Dont Let Me Be Lonely chords

Highlighted       Show chord diagrams
The Band Perry - Don't Let Me Be Lonely
Flat Tune     Gadd9 = 3x0233  Asus x02230  Asus2 = x02200

Intro 
 
Gadd9        | D           |A   Asus A |         ||x2
----2--0-----|----2--0-----|---------0-|---------|
----------3--|----------3--|-2---3-----|---------|
-2-----------|-2-----------|-2---------|---------|
-0-----------|-0-----------|-2---------|---------|
-------------|-------------|-0---------|---------|
-3-----------|-------------|-----------|---------|

Verse 1
          D
I need a saving grace, a hiding place
  Asus                                          Gadd9
I don't have forever or time to waste so don't let me be lonely
          
          D
I wanna shake this winter coat off my sleeve
Asus
Dust off a record and just be free
           Bm                          Gadd9
Oh don't let me be lonely, no don't let me be lonely

                 G           D           A                     Bm           
When you're young you can fly but we trip on clouds 'cause we get too high
G              D                 Bm
 And we grow up and then it's gone    ---------------
      A                         G*    -0---2---3-----
Oh God only knows what we'll become   -0---2---4-----
                                      -0-------------
Chorus                                -2-------------
            G                         -3-------------
So don't let me be, let me be
   D                 A Asus2
Let me be lonely tonight while we're young and alive
             G                      D                          A Asus2
Take the keys to my car and the keys to my heart and just drive
                               G    D   A Asus2
Oh don't let me, let me be lonely    ohhh


Verse 2
             D
Well the night rolls on like a long lost friend
          Asus                                      Gadd9
'Til the sunrise bleeds like the bitter end; don't let me be lonely

                D
Well there's nothing to hide and nothing to prove
          Asus
Give me all that you are, you got nothing to lose
             Bm                          Gadd9
Just don't let me be lonely, no don't let me be lonely

Chorus                                
            G                         
So don't let me be, let me be
   D                 A Asus2
Let me be lonely tonight while we're young and alive
             G                      D                          A Asus2
Take the keys to my car and the keys to my heart and just drive
                          G   
Oh don't let me, let me be lonely  

Solo  
(G)           |Bm            |A
--------------|--------------|------------|-----------|
--17b19r17-15-|--17b19r17-15-|-15--14-----|-----------|
-x------------|-x------------|x--------14-|-----------|
x-------------|x-------------|------------|-----------|
--------------|--------------|------------|-----------|
--------------|--------------|------------|-----------|
                                         No don't let me be

G                    Bm              A
------------------17|---------------|--17-19/21-21|-21---21b22-|
--17b19r17-15-17b19-|17b19r17-17b19r|17-----------|------------|
-x------------------|--------16-----|-------------|------------|
x-------------------|---------------|-------------|------------|
--------------------|---------------|-------------|------------|
--------------------|---------------|-------------|------------|


                 G              D           A             Bm
When you're young life's a dream, it's a beautiful and a burning thing
G          D                  Bm
 We grow up, and then it's gone
         A                 G*                          G*
But the memory goes on and on and on and on and on and on and on


Chorus
         G                              
Don't let me be, let me be
   D                 A Asus2
Let me be lonely tonight while we're young and alive
             G                      D                          A Asus2
Take the keys to my car and the keys to my heart and just drive
                          G      D   
Oh don't let me, let me be lonely   

A    Asus2                            G
 Don't let me be lonely (let me be lonely)
     Bm    A   Asus2              G
Don't,    don't let me be lonely     oh
D   A Asus2             G     Bm      G*
  No,   don't let me be, ooohoo Oh, lonely
Tap to rate this tab
 
# A B C D E F G H I J K L M N O P Q R S T U V W X Y Z