Song name
# A B C D E F G H I J K L M N O P Q R S T U V W X Y Z

The Band - The Weight tab

-------------------------------------------------------------------------------
			     THE WEIGHT - The Band
-------------------------------------------------------------------------------
Tabbed by: Taylor
Email: purbass@hotmail.com

Tuning: Standard


Not 100% I know but I think it sounds closer than a lot of what's out there.
Listen to the song for the hammer-on timings.
Canadian folk rock rules.


    +   -   +   -   +   -   +   -   +   -   +   -   +   -   +   -   +   -   
e|------0---5---5-----------------------------------------------------------|
B|--5---5---5h7-----5h7-5---5---5---3---3---3-----------------------2-------|
G|--4h6-------------4---4---4h6-4---2h4-2h4-2-----------2------2----2-------|
D|------------------------------------------------------2h4-----4\--2-------|
A|------------------------------------------------------------------0-------|
E|--------------------------------------------------------------------------|
Tap to rate this tab
 
# A B C D E F G H I J K L M N O P Q R S T U V W X Y Z