Song name
# A B C D E F G H I J K L M N O P Q R S T U V W X Y Z

The Band - The Weight chords

Highlighted       Show chord diagrams
This version is the Jack White, Edge, and Jimmy page version from "It Might Get Loud"

e----3-----3---3----2---------3--------------------|
B----3-----3---3----3--1-1----3--------------------|
G----0-----0---0----2--0-0----0--------------------|  x2
D----0-----0---2-------2-2----0--------------------|          
A----2-----0---2-------3-3----2--------------------|     
E----3-----2---x----2--x-x----3--------------------|      

Intro:   
G 
G/F#
Em7
D/F#
C x2
G
Verse:
G
Bm
C
G
Chorus:
G
D/F#
C


Verse

G            Bm                      C                 G
I pulled into Nazareth, I was feelin' about half past dead.
G                   Bm         C              G
I just need some place where I  can lay my head
G            Bm                      C                 G
Hey, mister, can you tell me where a man might find a bed
G               Bm                       C                 G
He just grinned and shook my hand, and "No", was all he said.

G      D/F#     C
Take a load off Fannie, 
G      D/F#     C
Take a load for free
G      D/F#     C
Take a load off Fannie,
                                                                        
And you can put the load right on me. 
e----3-----3---3----2---------3--------------------|
B----3-----3---3----3--1-1----3--------------------|
G----0-----0---0----2--0-0----0--------------------|  x2
D----0-----0---2-------2-2----0--------------------|          
A----2-----0---2-------3-3----2--------------------|     
E----3-----2---x----2--x-x----3--------------------|      

Tap to rate this tab
 
# A B C D E F G H I J K L M N O P Q R S T U V W X Y Z