Song name
# A B C D E F G H I J K L M N O P Q R S T U V W X Y Z

The Bar-kays - Too Hot To Stop tab

Introduction music from the movie Superbad

E---------------------------|
B---------------------------|
G---------------------------|
D-----11h12-----------------|
A---14----------------------|
E-12-------14h15--14h15--10-| Repeat this

h=hammer on

Second guitar

E-----------------------------|
B-9-9-9-9-------10b12-8-10p8--|
G-9-9-9-9---------------------|
D-9-9-9-9---------------------|
A-----------------------------|
E-----------------------------|

**First tab**
Tap to rate this tab
# A B C D E F G H I J K L M N O P Q R S T U V W X Y Z