Song name
# A B C D E F G H I J K L M N O P Q R S T U V W X Y Z

The Baseballs - Umbrella tab

Intro/Vers1:

G|----------------------------------------|
D|----------------------------------------|
A|---6---1---5---5------------------------|
E|-6---1---5-------3----------------------|

Ref:

G|---------------5-8-5--------------------|
D|-----------5-8------8-5-----------------|
A|-------5-6------------------------------|
E|-3-5-6----------------------------------|


G|----------------------------------------|
D|-------5-8-5----------------------------|
A|---5-8-------8-5------------------------|
E|--6-------------------------------------|


G|----------------------------------------|
D|-----7---------7------------------------|
A|-5-8---8-5-7-8--------------------------|
E|----------------------------------------|


G|-----------------------------------------|
D|-----------------------------------------|
A|-----5---------5-------------------------|
E|-3-6---6-3-5-6---------------------------|

Vers 2:

G|------------------------------------------|
D|------------------------------------------|
A|-6--6---1--1--5--5------5---5-------------|
E|---6--6---1--1--5--5--3---3---------------|

G|------------------------------------------|
D|------------------------------------------|
A|-6--6---1--1--5--5------5-------5---------|
E|---6--6---1--1--5--5--3---3-5-6-----------|

Bridge:

G|------------------------------------------|
D|------------------------------------------|
A|-----6----------6-5-5-5-5-5---------------|
E|---4---6-6-5-4----------------------------|


intro
vers1
ref
vers2
ref
bridge
ref
Tap to rate this tab
# A B C D E F G H I J K L M N O P Q R S T U V W X Y Z