Song name
# A B C D E F G H I J K L M N O P Q R S T U V W X Y Z

The Baseballs - Umbrella tab

E---------------|
B---------------|
G----3530-------|
D--5------------|
A-6-------------|
E---------------|

E---------------|
B---------------|
G---------------|
D----3530-------|
A--5------------|
E-6-------------|

E---------------|
B---------------|
G----232--------|
D--4-----4------|
A-5-------------|
E---------------|

E
B----343-------|
G--3-----3-----|
D-5------------|
A--------------|
E--------------|
Tap to rate this tab
 
# A B C D E F G H I J K L M N O P Q R S T U V W X Y Z