Song name
# A B C D E F G H I J K L M N O P Q R S T U V W X Y Z

The Baseballs - Umbrella tab

Tabbed by: Heyiloveguitarx

Normal tuning :)

   Intro/Verse 1:
       Eb                        Bb
e|---------------------------------------------------------------------------|
B|---------------------------------------------------------------------------|
G|---------------------------------------------------------------------------|
D|---------------8--8/10--8--------------------------------------------------|
A|------6--8/10-------------10--------------8--8/10--8-----------------------|
E|--------------------------------6--8/10--------------10--------------------|
       D7                        Gm
e|---------------------------------------------------------------------------|
B|---------------------------------------------------------------------------|
G|---------------------------------------------------------------------------|
D|--------------7--7/8--7----------------------------------------------------|
A|------5--7/9------------9----------------5-5/6--5--------------------------|
E|--------------------------------3--5/6--------------6----------------------|
                           3x whole repeat

    Chorus:
     Eb            Bb            F             Gm
e|---6--6--6--6----6--6--6--6----1--1--1--1----3--3--3--3--------------------|
B|---8--8--8--8----6--6--6--6----1--1--1--1----3--3--3--3--------------------|
G|---8--8--8--8----7--7--7--7----2--2--2--2----3--3--3--3--------------------|
D|---8--8--8--8----8--8--8--8----3--3--3--3----5--5--5--5--------------------|
A|---6--6--6--6----8--8--8--8----3--3--3--3----5--5--5--5--------------------|
E|---6--6--6--6----6--6--6--6----1--1--1--1----3--3--3--3--------------------|
     Eb            Bb            D7            Gm
e|---6--6--6--6----6--6--6--6----5--5--5--5----3--3--3--3--------------------|
B|---8--8--8--8----6--6--6--6----7--7--7--7----3--3--3--3--------------------|
G|---8--8--8--8----7--7--7--7----5--5--5--5----3--3--3--3--------------------|
D|---8--8--8--8----8--8--8--8----7--7--7--7----5--5--5--5--------------------|
A|---6--6--6--6----8--8--8--8----5--5--5--5----3--3--3--3--------------------|
E|---6--6--6--6----6--6--6--6----5--5--5--5----5--5--5--5--------------------|

    Solo 1:
      Eb        5x      Bb      5x        D7      5x       Gm        5x
e|------- 6---------|----------------|-----------5------|----------6--|--------|
B|---7/8------------|-------6--------|------6/7---------|----7/8------|--------|
G|------------------|---6/7----------|------------------|-------------|--------|
D|------------------|----------------|------------------|-------------|--------|
A|------------------|-----------------|-----------------|-------------|--------|
|
E|------------------|-----------------|-----------------|-------------|------
|

     Verse 2:
     Eb         Bb         D7        Gm
e|------11---------10--------10--------10------------------------------------|
B|---------------------------------------------------------------------------|
G|---12---------10---------11--------12--------------------------------------|
D|---------------------------------------------------------------------------|
A|---------------------------------------------------------------------------|
E|---------------------------------------------------------------------------|
      Eb         Bb         D7         Gm
e|------11---------10---------10------3--5----6--10--------------------------|
B|------------------------------------x--x-----------------------------------|
G|---12---------10---------11----------3--5----7--10-------------------------|
D|---------------------------------------------------------------------------|
A|---------------------------------------------------------------------------|
E|---------------------------------------------------------------------------|
    Play 'Chorus' and 'Solo' again.

    Bridge:
     Ab        Eb        Bb        Bb        Bb   Ab
e|---4---------6---------6---------6---------6----5--------------------------|
B|---4---------8---------6---------6---------6----5--------------------------|
G|---5---------8---------7---------7---------7----6--------------------------|
D|---6---------8---------8---------8---------8----7--------------------------|
A|---6---------6---------8---------8---------8----7--------------------------|
E|---4---------6---------6---------6---------6----5--------------------------|
     Ab        Eb        D7        D7   D7       D7 D7 D7 D7
e|---4---------6---------5---------5----5--------5--5--5--5------------------|
B|---4---------8---------7---------7----7--------7--7--7--7------------------|
G|---5---------8---------5---------5----5--------5--5--5--5------------------|
D|---6---------8---------7---------7----7--------7--7--7--7------------------|
A|---6---------6---------5---------5----5--------5--5--5--5------------------|
E|---4---------6---------5---------5----5--------5--5--5--5------------------|
         Play 'Chorus' again

     Solo 2:
      Eb                           Bb
e|---------------------------------------------------------------------------|
B|---11------11--13--11------------6-----6--8--6-----------------------------|           
                2x                      2x
G|---11/12---12--13--11/12---------6/7---7--8--6/7---------------------------|
D|---------------------------------------------------------------------------|
A|---------------------------------------------------------------------------|
E|---------------------------------------------------------------------------|
    D7
e|---------------------------------------10/11 10----------------------------|
B|-------------------------10/11--10--11-------------------------------------|
G|--------------11--10--11---------------------------------------------------|
D|---12--11--12--------------------------------------------------------------|
A|---------------------------------------------------------------------------|
E|---------------------------------------------------------------------------|
     Gm
e|---------------------------------------------------------------------------|
B|---10-11---10-11---10-11---------------------------------------------------|
G|---10/12---10/12---10/12----10-----10--------------------------------------|
D|-------------------------------12----12------------------------------------|
A|---------------------------------------------------------------------------|
E|---------------------------------------------------------------------------|
   Play 'Chorus' again

************************************

| /   slide up
| \   slide down
| h   hammer-on
| p   pull-off
| ~   vibrato
| +   harmonic
| x   Mute note
| b   Bend
| pb  Pre-bend
| br  Bend release
| pbr Pre-bend release
| brb Bend release bend

************************************
Tap to rate this tab
# A B C D E F G H I J K L M N O P Q R S T U V W X Y Z