Song name
# A B C D E F G H I J K L M N O P Q R S T U V W X Y Z

The Batfish Boys - The Tumbleweed Thing tab

-------------------------------------------------------------------------------
			     The Tumbleweed Thing - The Batfish Boys
-------------------------------------------------------------------------------
Tabbed by: HowardMoon7

Tuning: Standard

e|--------------------------------------|
B|----------8---------------------------|
G|----------7---------------------------|
D|----2-----5---------------------------|
A|----2---------------------------------|
E|----0------------3--5--3--2---3--2----|


That's pretty much the whole song, enjoy!

http://en.wikipedia.org/wiki/The_Batfish_Boys

| /  slide up
| \  slide down
| h  hammer-on
| p  pull-off
| ~  vibrato
| +  harmonic
| x  Mute note
===============================================================================
Tap to rate this tab
# A B C D E F G H I J K L M N O P Q R S T U V W X Y Z