Song name
# A B C D E F G H I J K L M N O P Q R S T U V W X Y Z

The Beards - Sharp Dressed Man tab

-------------------------------------------------------------------------
                            SHARP DRESSED MAN - The Beards
-------------------------------------------------------------------------

Tabbed by: lachie_45

Tuning: Standard

The Beards cover of ZZ Top's Sharp Dressed Man

Play along with: http://www.youtube.com/watch?v=GNBSvHbFg1A


Intro/Fill:

e|------------------------|
B|---------5-3------5-3---|
G|---------x-x-4--4-x-x-4-|
D|---------4-4-4--4-4-4-4-|
A|-----0-2-2-2-2--2-2-2-2-|
E|-0-2--------------------|


Bm                     A
Clean shirt, new shoes
                            E
And I don't know where I am goin' to.
Bm                  A
Silk suit,black tie,
                         E
I don't need a reason why.
F#
They come runnin' just as fast as they can
Bm
Coz' every girl's crazy 'bout a sharp dressed man.


Bm                       A
Gold watch, diamond ring,
                    E
I ain' missin'not a single thing.
Bm                      A
And cufflinks, stick pin
                          E
When I step out I'm gonna do you in.
F#
They come runnin' just as fast as they can
Bm
Coz' every girl's crazy 'bout a sharp dressed man.


Solo (With Sax):


e|------------------------|
B|---------5-3------5-3---|
G|---------x-x-4--4-x-x-4-|
D|---------4-4-4--4-4-4-4-|
A|-----0-2-2-2-2--2-2-2-2-|
E|-0-2--------------------| x4

e|-------------------------|
B|-------3--3-3--2-3-3-2-3-|
G|-------2--2-2--2-2-2-2-2-|
D|-------2--2-2--2-2-2-2-2-|
A|-----0-0--0-0--0-0-0-0-0-|
E|-0-2---------------------| x1

e|------------------------|
B|---------5-3------5-3---|
G|---------x-x-4--4-x-x-4-|
D|---------4-4-4--4-4-4-4-|
A|-----0-2-2-2-2--2-2-2-2-|
E|-0-2--------------------| x1

e|-------------------------|
B|-------------------------|
G|-------1--1-1--1-1-1-1-1-|
D|-------2--2-2--2-2-2-2-2-|
A|-------2--2-2--2-2-2-2-2-|
E|-0-2-0-0--0-0--0-0-0-0-0-|

e|------------------------|
B|---------5-3------5-3---|
G|---------x-x-4--4-x-x-4-|
D|---------4-4-4--4-4-4-4-|
A|-----0-2-2-2-2--2-2-2-2-|
E|-0-2--------------------| x3


Bm                 A
Top coat, top hat,
                     E
I don't worry coz my wallet's fat.
Bm                         A
Black shades, white gloves,
                  E
Lookin' sharp and lookin' for love.
F#
They come runnin' just as fast as they can
Bm
Coz' every girl's crazy 'bout a sharp dressed man.

e|------------------------|
B|---------5-3------5-3---|
G|---------x-x-4--4-x-x-4-|
D|---------4-4-4--4-4-4-4-|
A|-----0-2-2-2-2--2-2-2-2-|
E|-0-2--------------------| xRepeat till the end
Tap to rate this tab
# A B C D E F G H I J K L M N O P Q R S T U V W X Y Z