Song name
# A B C D E F G H I J K L M N O P Q R S T U V W X Y Z

The Beards - Beard Accessory Store chords

Highlighted       Show chord diagrams
Beard Accesory Store - The Beards

Tabbed by: joker55

Tuning: Standart

Capo 1st Fret

Intro

e|---------0---------------0--------|
B|-------1---1-----------1---1------|
G|-----2-------2--2----2-------2--2-|
D|---2-----------2---2-----------2--|
A|-0---------------0----------------|
E|----------------------------------|


Verses

  (Am)            (E7)    (Am)
e|---------0-----------0---0--------|
B|-------1---1---------0---1--------|
G|-----2-------2--2----1---2--------|
D|---2-----------2-----0---2--strum-|
A|-0-----------------2-----0--------|
E|-----------------0----------------|

Am                          E7              Am
I once owned and operated a beard accessory store

  (C)         (G)                (Am)
e|-0-----------3------------------0---------|
B|-1-----------0----------------1---1-------|
G|-0-----------0--------------2-------2---2-|
D|-2--strum----0--strum-----2-----------2---|
A|-3-----------2----------0-----------------|
E|-------------3----------------------------|

  C     G         Am
A beard accessory store

Am                            E7              Am
Business it was booming at my beard accessory store

   C     G         Am
My beard accessory store

    C                   G
But then people started shaving

    C                G
And business started waning

  (F)       (E7)                 (Am)
e|-1---------0--------------------0--------|
B|-1---------0------------------1---1------|
G|-2---------1----------------2-------2--2-|
D|-3-strum---0-let ring-----2-----------2--|
A|-3---------2------------0----------------|
E|-1---------0-----------------------------|

      F     E7        Am
At my beard accessory store


The landlord came a knockin' at my beard accessory store
My beard accessory store
Said I was evicted from my beard accessory store
My beard accessory store
He said that beard accessories
Were no longer necessities
And shut my beard accessory store


So I lured my landlord inside and locked the door
Of my beard accessory store
I can't say what I did to him, but it was against the law
At my beard accessory store
And now I've long since left town
The body was never found
And I don't sell beard accessories any more
Tap to rate this tab
 
# A B C D E F G H I J K L M N O P Q R S T U V W X Y Z