Song name
# A B C D E F G H I J K L M N O P Q R S T U V W X Y Z

The Beatles - Dig A Pony tab

-------------------------------------------------------------------------------
                             DIG A PONY - The Beatles
-------------------------------------------------------------------------------
Tabbed by: coldstilllife
E-mail: coldstilllife@gmail.com

Tuning: standard

Intro:

e|----------------------|---------------------|-----------------------|
B|----------------------|---------------------|-----------------------|
G|----------------------|---------------7-----|-----------------------|
D|----------------5-----|--------7---9-----9--|--2---2--2----------2--|
A|---------5---7-----7--|-5---9---------------|--0---0--0---3--4------|
E|--3---7---------------|---------------------|-----------------------|

e|---------------------------|-----------------------|---------------------|
B|---------------------------|-----------------------|---------------------|
G|--------2------------------|-----------------------|--------------7------|
D|--3--4-----4---2--------0--|----------------5------|--------7---9-----9--|
A|------------------3--4-----|---------5---7------7--|--5---9--------------|
E|---------------------------|--3---7----------------|---------------------|

e|-----------------------|-------------------------|
B|-----------------------|-------------------------|
G|-----------------------|--------2----------------|
D|--2---2--2----------2--|--3--4-----4---2-------2-|
A|--0---0--0---3--4------|-----------------3--4----|
E|-----------------------|-------------------------|

Verse:

   "I-hi-hi-hi...
e|----5--5--5----|----5--5--5----|----5--5--5----|
B|-2--2--2--2h3--|-2--2--2--2h3--|-2--2--2--2h3--|
G|-2-----2--2----|-2-----2--2----|-2-----2--2----|
D|-2--------2h4--|-2--------2h4--|-2--------2h4--|
A|-0-------------|-0-------------|-0-------------|
E|---------------|---------------|---------------|

  pony...     celebrate...  want...  Oohhhh now...
e|--2--|--2--|-----2-------|--3-----|--0--|
B|--2--|--2--|-----3-------|--6-----|--0--|
G|--2--|--2--|-----4-------|--4-----|--1--|
D|--4--|--4--|-----4-------|--3-----|--2--|
A|--4--|--4--|-----2-------|--5-----|--2--|
E|--2--|--2--|-----2-------|--3-----|--0--|

  All I want is you..."
e|--3--|--2----|-------------------|---------------------|
B|--3--|--3----|-------------------|---------------------|
G|--4--|--2----|-------------------|-----2---------------|
D|--5--|--0----|-----------------2-|-3h4----4--2------2--|
A|--5--|--0----|--0--0--0--3--4----|--------------3h4----|
E|--3--|--x----|-------------------|---------------------|

"Everything...be just... to...
e|-----3-----|----2-----|---0---|
B|-----3-----|----3-----|---2---|
G|-----4-----|----2-----|---2---|
D|-----5-----|----0-----|---2---|
A|-----5-----|----0-----|---0---|
E|-----3-----|----x-----|---x---|

************************************

| /   slide up
| \   slide down
| h   hammer-on
| p   pull-off
| ~   vibrato
| +   harmonic
| x   Mute note
| b   Bend
| pb  Pre-bend
| br  Bend release
| pbr Pre-bend release
| brb Bend release bend

************************************
Tap to rate this tab
# A B C D E F G H I J K L M N O P Q R S T U V W X Y Z