Song name
# A B C D E F G H I J K L M N O P Q R S T U V W X Y Z

The Beautiful Girls - And Well Dance On The Ashes Of Whats Left tab

Help us improve GuitareTab! Take a short survey!
Highlighted       Show chord diagrams
The Beautiful Girls
 ...And We'll Dance On the Ashes of What's Left
 Already Gone

 EADGBe tuning

Intro
 Am      Dm       C        Bm      Am
|-5-------5-------8--------7--------5-------|
|-5-------6-------8--------7--------5-------|
|-5-------7-------9--------7--------5-------|
|-7-------7-------10-------9--------7-------|
|-7-------5-------10-------9--------7-------|
|-5---------------8--------7--------5-------|

 Am      Dm       C        Bm      Am
|-5-------5-------8--------7--------5-------|
|-5-------6-------8--------7--------5-------|
|-5-------7-------9--------7--------5-------|
|-7-------7-------10-------9--------7-------|
|-7-------5-------10-------9--------7-------|
|-5---------------8--------7--------5-------|


Verse (vocals come in)
 Am      Dm       C        Bm      Am
|-5-------5-------8--------7--------5-------|
|-5-------6-------8--------7--------5-------|
|-5-------7-------9--------7--------5-------|
|-7-------7-------10-------9--------7-------|
|-7-------5-------10-------9--------7-------|
|-5---------------8--------7--------5-------|

 Am      Dm       C        Bm      Am
|-5-------5-------8--------7--------5-------|
|-5-------6-------8--------7--------5-------|
|-5-------7-------9--------7--------5-------|
|-7-------7-------10-------9--------7-------|
|-7-------5-------10-------9--------7-------|
|-5---------------8--------7--------5-------|

chorus
  F       G       Am        G        C       G
|-1--------3-------5--------3--------3-------3------|
|-1--------3-------5--------3--------5-------3------|
|-2--------4-------5--------4--------5-------4------|
|-3--------5-------7--------5--------5-------5------|
|-3--------5-------7--------5--------3-------5------|
|-1--------3-------5--------3----------------3------|

  F       G       Am        G        C       G
|-1--------3-------5--------3--------3-------3------|
|-1--------3-------5--------3--------5-------3------|
|-2--------4-------5--------4--------5-------4------|
|-3--------5-------7--------5--------5-------5------|
|-3--------5-------7--------5--------3-------5------|
|-1--------3-------5--------3----------------3------|

  F       G       Am        G        C       G
|-1--------3-------5--------3--------3-------3------|
|-1--------3-------5--------3--------5-------3------|
|-2--------4-------5--------4--------5-------4------|
|-3--------5-------7--------5--------5-------5------|
|-3--------5-------7--------5--------3-------5------|
|-1--------3-------5--------3----------------3------|

  F       G       Am       
|-1--------3-------5----|
|-1--------3-------5----|
|-2--------4-------5----|
|-3--------5-------7----|
|-3--------5-------7----|
|-1--------3-------5----|

Verse 2
 Am      Dm       C        Bm      Am
|-5-------5-------8--------7--------5-------|
|-5-------6-------8--------7--------5-------|
|-5-------7-------9--------7--------5-------|
|-7-------7-------10-------9--------7-------|
|-7-------5-------10-------9--------7-------|
|-5---------------8--------7--------5-------|

 Am      Dm       C        Bm      Am
|-5-------5-------8--------7--------5-------|
|-5-------6-------8--------7--------5-------|
|-5-------7-------9--------7--------5-------|
|-7-------7-------10-------9--------7-------|
|-7-------5-------10-------9--------7-------|
|-5---------------8--------7--------5-------|

Chorus
  F       G       Am        G        C       G
|-1--------3-------5--------3--------3-------3------|
|-1--------3-------5--------3--------5-------3------|
|-2--------4-------5--------4--------5-------4------|
|-3--------5-------7--------5--------5-------5------|
|-3--------5-------7--------5--------3-------5------|
|-1--------3-------5--------3----------------3------|

  F       G       Am        G        C       G
|-1--------3-------5--------3--------3-------3------|
|-1--------3-------5--------3--------5-------3------|
|-2--------4-------5--------4--------5-------4------|
|-3--------5-------7--------5--------5-------5------|
|-3--------5-------7--------5--------3-------5------|
|-1--------3-------5--------3----------------3------|

  F       G       Am        G        C       G
|-1--------3-------5--------3--------3-------3------|
|-1--------3-------5--------3--------5-------3------|
|-2--------4-------5--------4--------5-------4------|
|-3--------5-------7--------5--------5-------5------|
|-3--------5-------7--------5--------3-------5------|
|-1--------3-------5--------3----------------3------|


  F       G       Am       
|-1--------3-------5----|
|-1--------3-------5----|
|-2--------4-------5----|
|-3--------5-------7----|
|-3--------5-------7----|
|-1--------3-------5----|

middle part
  Am    Dm        G
|-5------5--------3-|
|-5------6--------3-|
|-5------7--------4-| x4
|-7------7--------5-|
|-7------5--------5-|
|-5---------------3-|
and we'll dance on the...

  F       G       Am       
|-1--------3-------5----|
|-1--------3-------5----|
|-2--------4-------5----|
|-3--------5-------7----|
|-3--------5-------7----|
|-1--------3-------5----|
we'll share this same old song..

 Am      Dm       C        Bm      Am
|-5-------5-------8--------7--------5-------|
|-5-------6-------8--------7--------5-------|
|-5-------7-------9--------7--------5-------|
|-7-------7-------10-------9--------7-------|
|-7-------5-------10-------9--------7-------|
|-5---------------8--------7--------5-------|

 Am      Dm       C        Bm      Am
|-5-------5-------8--------7--------5-------|
|-5-------6-------8--------7--------5-------|
|-5-------7-------9--------7--------5-------|
|-7-------7-------10-------9--------7-------|
|-7-------5-------10-------9--------7-------|
|-5---------------8--------7--------5-------|

Outro
  F       G       Am        G        C       G
|-1--------3-------5--------3--------3-------3------|
|-1--------3-------5--------3--------5-------3------|
|-2--------4-------5--------4--------5-------4------|
|-3--------5-------7--------5--------5-------5------|
|-3--------5-------7--------5--------3-------5------|
|-1--------3-------5--------3----------------3------|

  F       G       Am        G        C       G
|-1--------3-------5--------3--------3-------3------|
|-1--------3-------5--------3--------5-------3------|
|-2--------4-------5--------4--------5-------4------|
|-3--------5-------7--------5--------5-------5------|
|-3--------5-------7--------5--------3-------5------|
|-1--------3-------5--------3----------------3------|

  F       G       Am        G        C       G
|-1--------3-------5--------3--------3-------3------|
|-1--------3-------5--------3--------5-------3------|
|-2--------4-------5--------4--------5-------4------|
|-3--------5-------7--------5--------5-------5------|
|-3--------5-------7--------5--------3-------5------|
|-1--------3-------5--------3----------------3------|


  F       G       Am        G        C       G
|-1--------3-------5--------3--------3-------3------|
|-1--------3-------5--------3--------5-------3------|
|-2--------4-------5--------4--------5-------4------|
|-3--------5-------7--------5--------5-------5------|
|-3--------5-------7--------5--------3-------5------|
|-1--------3-------5--------3----------------3------|

  F       G       Am        G        C       G
|-1--------3-------5--------3--------3-------3------|
|-1--------3-------5--------3--------5-------3------|
|-2--------4-------5--------4--------5-------4------|
|-3--------5-------7--------5--------5-------5------|
|-3--------5-------7--------5--------3-------5------|
|-1--------3-------5--------3----------------3------|

  F       G       Am        G        C       G
|-1--------3-------5--------3--------3-------3------|
|-1--------3-------5--------3--------5-------3------|
|-2--------4-------5--------4--------5-------4------|
|-3--------5-------7--------5--------5-------5------|
|-3--------5-------7--------5--------3-------5------|
|-1--------3-------5--------3----------------3------|


  F       G       Am        G        C       G
|-1--------3-------5--------3--------3-------3------|
|-1--------3-------5--------3--------5-------3------|
|-2--------4-------5--------4--------5-------4------|
|-3--------5-------7--------5--------5-------5------|
|-3--------5-------7--------5--------3-------5------|
|-1--------3-------5--------3----------------3------|

  F       G       Am       
|-1--------3-------5----|
|-1--------3-------5----|
|-2--------4-------5----|
|-3--------5-------7----|
|-3--------5-------7----|
|-1--------3-------5----|
	
Related for And Well Dance On The Ashes Of Whats Left tab