Guitaretab - guitar tabs
Song name
# A B C D E F G H I J K L M N O P Q R S T U V W X Y Z

The Beautiful Girls - At The First Sign Of Trouble tab

-------------------------------------------------------------------------------
AT THE FIRST SIGN OF TROUBLE  The Beautiful Girls
-------------------------------------------------------------------------------
Tabbed by:jbolt
Email:jhelenbo@uwyo.edu

Tuning:standard

e|---------------------------------------------------------------------------|
B|-------13----------------13---------------13----------------13-------------|
G|---12----12-10-12----12----12-10------12----12-10-12----12----12-10--------|x6
D|-10--10------------10--10-------10--10--10------------10--10---------------|
A|---------------------------------------------------------------------------|
E|---------------------------------------------------------------------------|

e|---------------------------------------------------------------------------|
B|------3-4h6------4-3-4-3------------4-6-3-4-3-----------------3-4/6-4-3-4--|
G|--4-5---------------------5-----4-5-----------4-5-4---5---4-5--------------|
D|-5----------------------------5-------------------------5------------------|
A|---------------------------------------------------------------------------|
E|---------------------------------------------------------------------------|

e|-----------------------3p4-4-----------------------------------------------|
B|-3-----------------4-6----6-6-4-6-666-4-444-3---------4-6-4----------------|
G|---5-4-5--555-4-4-5--------------------------5-444-4h5-------4-5-4---------|
D|---------------5----------------------------------5---------5-----5--------|
A|---------------------------------------------------------------------------|
E|---------------------------------------------------------------------------|

e|----------4-3--6-4-3-4-3-3-------------------------------------------------|
B|-------4h6--------------6-6-4-3h4p3-----4-7p6-4-6-4-------4-6-4------------|
G|----4h5----------------------------5p3h5---------------4h5------5p4-4-5----|
D|-4h5------------------------------------------------4h5------------5-------|
A|---------------------------------------------------------------------------|
E|---------------------------------------------------------------------------|

e|----------------------------------------------------^-------^--------------|
B|-4-6-4--------4-6-4--------4-6-4-4p3-4p3----3-4-6-6-6-4-6-6-6-4h6-6p4------|
G|-------5p4-4-5------5p4-4-5--------------4-5-------------------------5-----|
D|----------5------------5---------------------------------------------------|
A|---------------------------------------------------------------------------|
E|---------------------------------------------------------------------------|

e|---------------------------------------------------------------------------|
B|----------4-6-666-4-3-4-3-3-4-3--------------------------------------------|
G|-555-4-55---------------5-------------------------------------------------|
D|----------------------------------------1-3-3-3/4\3-1-1----------------1-3-|
A|---------------------------------3\1-1h3-------------3-3-1-3-3--3-3-1h3----|
E|---------------------------------------------------------------------------|
[ Tab from: http://www.guitaretab.com/t/the-beautiful-girls/107244.html ]
e|-------------------------------------------------------------------------x-|
B|-------------------------------------------------------------------------x-|
G|----------------------------------------------------------------3/5-5-5-5x-|
D|-3-3/4\3-1-3-----1-3-3-3/4\3-1---------3-3-3-3/4\3-1-1-1-1-1----3/5-5-5-5x-|
A|--------------1h3-------------3-----1h3-------------3-------3\1-1/3-3-3-3x-|
E|-------------------------------------------------------------------------x-|

e|---------x-------------x---------------------x---------x-------------x-----|
B|---------x-------------x---------------------x---------x-------------x-----|
G|5/8-8-8-8x8/10-10-10-10x3-3-3-3-3-3-3/5-5-5-5x5/8-8-8-8x8/10-10-10-10x3-3-3|
D|5/8-8-8-8x8/10-10-10-10x3-3-3-3-3-3-3/5-5-5-5x5/8-8-8-8x8/10-10-10-10x3-3-3|
A|3/6-6-6-6x6/8--8--8--8-x1-1-1-1-1-1-1/3-3-3-3x3/6-6-6-6x6/8--8--8--8-x1-1-1|
E|---------x-------------x---------------------x---------x-------------x-----|

e|---------------------------------------------------------------------------|
B|---------------------------------------------------------------------------|
G|3-3-3/5-5-5-5x5/8-8-8-8x8/10-10-10-10x3-3-3-3-3-5-5-5-5-5-5/8-8-8-8-8/10-10|
D|3-3-3/5-5-5-5x5/8-8-8-8x8/10-10-10-10x3-3-3-3-3-5-5-5-5-5-5/8-8-8-8-8/10-10|
A|1-1-1/3-3-3-3x3/6-6-6-6x6/8--8--8--8-x1-1-1-1-1-3-3-3-3-3-3/6-6-6-6-6/8--8-|
E|---------------------------------------------------------------------------|

e|-----x---------x--------------3------------------------------------8-6-4-3-|
B|-----x---------x-----------4-6-6-4-------------4-------------------8-------|
G|10-10x3-3-3-3-3x5-5---------------5-5-3-5-3-3/5--------------------8-------|
D|10-10x3-3-3-3-3x5-5-----------------------------5-1-----1-3-3h4p3--8-------|
A|8--8-x1-1-1-1-1x3-3--------------------------------3-1-3-------------------|
E|-----x---------x-----------------------------------------------------------|

e|-4-5h6p3---------4-3-3---------------1/3-6-----1/3-6---------------3-6-----|
B|--------4h6-4h6--4--6-6-4-3-4-4-3-3-------6p4h6-----6p4-3-------4-6---6-4--|
G|-----------------5---------------------------------------5---3-5---------5-|
D|-----------------5----------------------------------------3h5--------------|
A|-----------------3---------------------------------------------------------|
E|---------------------------------------------------------------------------|

e|---------------------------------------------------------------------------|
B|4-4-4-4---------13---------------13--------------13---------------13-------|
G|-------5----12----12-10-12---12----12-10-----12----12-10-12---12----12-10--|
D|----------10--10-----------10--10-------10-10--10-----------10--10---------|
A|---------------------------------------------------------------------------|
E|---------------------------------------------------------------------------|

e|---------------------------------------------------------------------------|
B|-------13---------------13--------------------13----------------13---------|
G|---12----12-10-12---12----12-10------12---12----12-10-12----12----12-10----|x3
D|-10--10-----------10--10-------10--10---10--10------------10--10-----------|
A|---------------------------------------------------------------------------|
E|---------------------------------------------------------------------------|

e|--6----|
B|--7----|
G|--8----|
D|--8----|
A|--6----|
E|--6----|

| /  slide up
| \  slide down
| h  hammer-on
| p  pull-off
| ~  vibrato
| +  harmonic
| x  Mute note
| ^  String Bend
===============================================================================

Related for At The First Sign Of Trouble tab