Song name
# A B C D E F G H I J K L M N O P Q R S T U V W X Y Z

The Beautiful Girls - All I Need tab

THE BEAUTIFUL GIRLS: "All I Need" 
 

tuning - slide tuning - CFCFCF 

intro 
F|-------5-(let ring)-3h5p3p0-------------------| 
C|----------------------------0-5-3h5p0---5-----| 
F|-----(0)----------------------------------0h5-| 
C|-(0)----------------------------------0-------| 
F|-------------------------------------(0)------| 
C|----------------------------------------------| 

F|------------------------------5^}-------------| 
C|------------------------------5^}-rake--------| 
F|-3h5p3p0-----5----------------5^}-------------| 
C|-----------5---5-5-(let ring)-5^}-------------| 
F|---------0-------0-(let ring)-----------------| 
C|----------------------------------------------| 

verse 
F|--------------------------------| 
C|---------0----------------------| 
F|------------------5p0---3p0---0-| 
C|---5p0-----------(0)------------| 
F|-0-----0-----0-0------0-----0---| 
C|--------------------------------| 

variations 
F|--------------------------------| 
C|---------5p0--------------------| 
F|------------------5p0---3p0---0-| 
C|---5p0-----------(0)------------| 
F|-0-----0-----0-0------0-----0---| 
C|--------------------------------| 

F|--------------------------------| 
C|---------5----------------------| 
F|---5p0------------5p0---3p0---0-| 
C|-----------------(0)------------| 
F|-0-----0--------0-----0-----0---| 
C|--------------------------------| 

F|--------------------------------| 
C|---------0-----------5p0--------| 
F|-----------------5p0-----3h5p0--| 
C|---5p0--------------------------| 
F|-0-----0-----0-0------0---------| 
C|--------------------------------|
Tap to rate this tab
# A B C D E F G H I J K L M N O P Q R S T U V W X Y Z