Song name
# A B C D E F G H I J K L M N O P Q R S T U V W X Y Z

The Beautiful Girls - Summertime tab

Help us improve GuitareTab! Take a short survey!
Summertime - The Beautiful Girls

[Originally from www.xrtab.com]

tuning DGCFAd

The song uses a simple 12-bar blues pattern using these chords:
   A7    D7    E7
d|--x--|--x--|--x--|
A|--x--|--x--|--x--|
F|--8--|--7--|--9--|
C|--7--|--6--|--8--|
G|--9--|--7--|--9--|
D|--7--|--x--|--x--|


INTRO
A7   A7   A7   A7
D7   D7   A7   A7
E7   D7   E7   D7
A7   E7

REST OF SONG
A7   A7   A7   A7
D7   D7   A7   A7
E7   D7   A7   E7

No solo or outro yet.

The bass is again a simple pattern repeated over.
   A7              D7            E7
F|--------------|---------7----|----------9---|
C|---------7----|-----6/9---9--|-----8/11---11|
G|-----6/9---9--|--7-----------|--9-----------|
D|--7-----------|--------------|--------------|

For final E7:
F|-----------------|
C|-----------------|
G|-9-9-9-9-9-9-9-9-|
D|-----------------|
Related for Summertime tab