Song name
# A B C D E F G H I J K L M N O P Q R S T U V W X Y Z

The Beautiful Girls - Weight Of The World tab

Weight Of The World - The Beautiful Girls
transcribed by Damian Smith

[Originally from www.xrtab.com]

Notes: played in a reggae staccato kinda way - I'm sure you're all familiar with it.

h - hammer-on
p - pull-off
~ - let ring
/ - slide up
 - slide down
v - vibrato

Thumb piano intro

MAIN RIFF
    Cm              F
d|----------------|----------------|
A|--/5--5-----5---|------3-----3---|
F|--/6--6-----6---|------4-----4---|
C|--/6--6-----6---|------5-----5---|
G|----------------|----------------|
D|----------------|----------------|

(note: the "...through to you tonight" part is played exactly the same, it's just the 
notes that make it appear different)

FIRST BREAK
    Cm
d|--------------------------------|
A|------5-----5---------5-----5---|
F|------6-----6---------6-----6---|   x4
C|------6-----6---------6-----6---|
G|--5-5-5-------------------------|
D|--------------------------------|

"From the very first second..."
     Cm               F
d|--------------------------------|
A|---5~---------------3~----------|
F|---6~---------------4~----------|   x4
C|---6~---------------5~----------|
G|--------------------------------|
D|--------------------------------|

"What are they going to do when we..."
     Cm
d|--------|    then one more |----------------|------------------|
A|---5\--|                  |--/5--5-----5---|------3-----3------|
F|---6\--|                  |--/6--6-----6---|------4-----4------|
C|---6\--|                  |--/6--6-----6---|------5-----5------|
G|--------|                  |----------------|------------------|
D|--------|                  |----------------|------------------|

"Cos I can see reasons for never..."
    Bb7           F             Bb7           F
d|--------------------------------------------------------|
A|--5~------------3~------------5~------------3~----------|
F|--3~------------4~------------3~------------4~----------|
C|--5~------------5~------------5~------------5~----------|
G|--3~------------5~------------3~------------5~----------|
D|--------------------------------------------------------|

    Bb7           F             G             G7
d|----------------------------------------------------------|
A|--5~------------3~------------5~------------8~------------|
F|--3~------------4~------------6~------------6~------------|
C|--5~------------5~------------7~------------7~------------|
G|--3~------------5~------------7~--------------------------|
D|----------------------------------------------------------|

     Cm           F                  Cm
d|--------------------------------|---------------------------------|
A|---5~-----------3~--------------|--/5--5-----5h6-8---6---5--------|
F|---6~-----------4~--------------|--/6--6---------------------7-5--|  x2
C|---6~-----------5~--------------|--/6--6--------------------------|
G|--------------------------------|---------------------------------|
D|--------------------------------|---------------------------------|

SOLO
d|----------------------------------------------------------------------|
A|----------------------------------------------------------------------|
F|----------------------------------------------------------------------|  x4
C|------------------7---5-----------------------------------------------|
G|-/5---5-5---5-5-------------------/5---5-5---5-5----------------------|
D|---------------------------------------------------5---3--------------|

d|------------------------------------------------------------------|
A|----------------------------6~------------------------------------|
F|-5h7-7--5h7-7--5h7-7--5h7p5--------5h7-7--5h7-7--5h7-7--5h7p5-----|
C|-7------7------7------7------------7------7------7------7------7~-|
G|------------------------------------------------------------------|
D|------------------------------------------------------------------|

d|--------------------------------------------------------------------|
A|----------------------------6~--------------------------------------|
F|-5h7-7--5h7-7--5h7-7--5h7p5--------5h7-7--5h7-7--5------------------|
C|-7------7------7------7------------7------7------7------------------|
G|--------------------------------------------------------------------|
D|--------------------------------------------------------------------|

d|------------------------------------------------------------------|
A|-6h8-6----6-----------------------6h8-6----6----------------------|
F|-7------7---7--5h7~---5h7p5-------7------7---7--5h7~---5h7p5------|
C|---------------7--~---------7~------------------7--~---------7~---|
G|------------------------------------------------------------------|
D|------------------------------------------------------------------|

d|------------------------------------------------------------------|
A|-6h8-6----6-------------------------------6---8---6v--------------|
F|-7------7---7--5h7~---5h7p5-------5---7---------------7-----------|
C|---------------7--~---------7~------------------------------------|
G|------------------------------------------------------------------|
D|------------------------------------------------------------------|

    F             G
d|--------------------------|
A|--3-------------5---------|
F|--4-------------6---------|
C|--5-------------7---------|
G|--5-------------7---------|
D|--------------------------|

Thumb piano outro
Tap to rate this tab
 
# A B C D E F G H I J K L M N O P Q R S T U V W X Y Z