Song name
# A B C D E F G H I J K L M N O P Q R S T U V W X Y Z

The Beautiful Girls - Less tab

Intro without capo
After intro use capo on second.
H - harmonic 
~ - let ring 

Intro 
d|------------------| 
A|-H12--H7--H5-~~~--| 
F|-H12--H7--H5-~~~--| 
C|-H12--H7--H5-~~~--| 
G|------------------| 
D|------------------| 

(Now capo on the 2nd) 

Verse (pick on these chords) 
     C         F         F         C 
d|---0---------1---------1---------0--| 
A|---1---------1---------1---------1--| 
F|---0---------2-------0h2---------0--| 
C|-0h2---------3---------3-------0h2--| 
G|---3-------0h3---------3---------3--| 
D|---3-----------------------------3--| 

Chorus (strum loosely) 
     G         Bb 
d|-------------------| 
A|-------------------| 
F|---4---------7-----| 
C|---5---------8-----| 
G|---5---------8-----| 
D|---3---------6-----| 

Outro 
     C 
d|---0~--| 
A|---1~--| 
F|---0~--| 
C|-0h2~--| 
G|---3~--| 
D|---3~--|
Tap to rate this tab
# A B C D E F G H I J K L M N O P Q R S T U V W X Y Z