Song name
# A B C D E F G H I J K L M N O P Q R S T U V W X Y Z

The Beautiful Girls - Le Mar The Ocean tab

Band = The Beautiful Girls
Song = La Mar (The Ocean)

tabbed by mitchbarry
email = mitch.barry@hotmail.com
tuning = 1/2 step down

The credit for the tabbing of this song definitely goes to shanE i just had to add the 
touch on the rhythm guitar. with the strumming pattern it sounds better if you don't play 
lowest string too hard on each chord shape. Cheers


Main Part

Eb  |------------------------------------------------------------------x----|
Bb  |--------------------5-x-----5-5-x---------------------------------x----|
Gb  |---1-x----1-1-x-----6-x--6--6-6-x--6--4-x----4-4-x-----6-x----6-6-x----|
Db  |---2-x--2-2-2-x--2--6-x-----4-4-x-----6-x--6-6-6-x--6--8-x--8-8-8-x--8-|
Ab  |-2-2-x----2-2-x-----4-x-4---4-4-x-4---6-x----6-6-x-----8-x----8-8-x----|
eb  |-0-0-x-0--0-0-x-0---------------------4-x-4--4-4-x-4---6-x-6--6-6-x-6--|

Solo

Eb  |----------------------------------------------------------------------|
Bb  |-------------------------------------------------------12-------------|
Gb  |------------------------------------11b12r11-9-11b12r11----11b12r11---|
Db  |--------------------9----9----9s11-9----------------------------------|
Ab  |-9---7---9--7--9s11---11---11-----------------------------------------|
eb  |----------------------------------------------------------------------|


Eb  |---------------------|-------------------------------|-------------|
Bb  |-12------------------|-------12-----12-----12-----12-|-------------|
Gb  |---11b12r11-9h11-9s0-|--11h13--11h13--11h13--11h13---|-(repeat this|
Db  |---------------------|-------------------------------|---part as---|
Ab  |---------------------|-------------------------------|---needed)---|
eb  |---------------------|-------------------------------|-------------|
                               repeat.


Eb  |--------------------------------------------------------------|
Bb  |--------------------------------------------------------------|
Gb  |-s13-11-9--------------------------9h11r9-----9---------------|
Db  |-----------------9h11-11-9------------------11---11-9---------|
Ab  |---------------------------11-9-11----------------------------|
eb  |--------------------------------------------------------------|


Eb  |--------------------------------------------------------------|
Bb  |--------------------------------------------------------------|
Gb  |--------------------9h11p9------9-----------------------------|
Db  |-9h11-11-9-------------------11---11-9------------------------|
Ab  |-----------11--9--11------------------------------------------|
eb  |--------------------------------------------------------------|


Eb  |----------------------------------------------------------------------|
Bb  |----------------------------------------------------------------------|
Gb  |-----------------9h11p9----9------------------------------9-9-9-9-9s0-|
Db  |-9h11-11-9--------------11---11-9-9h11-11-11-11-9h11-11-11------------|
Ab  |----------11-9-11-----------------------------------------------------|
eb  |----------------------------------------------------------------------|

Solo by shanE
Tap to rate this tab
 
# A B C D E F G H I J K L M N O P Q R S T U V W X Y Z