The Beautiful Girls - Freedom Part 2 tab

-------------------------------------------------------------------------------
			     Freedom (Part 2) - The Beautiful Girls
-------------------------------------------------------------------------------

Tabbed by: Ben Bruce
Email: bpbruce13@gmail.com

There's actually two guitars playing, but this is how I like to play it. Try
to let the bass notes ring out as long as possible. The whole song centers 
on the following barre chords.

B   [799877]
A#m [x68876]
E   [x79997]

INTRO:

|-----------------------------------------------------|
|--7---7-7---7----------------------------------------|
|----8-----8---8h-11-p8----9-8-6-8--------------------|
|------------8-----------8---------11/13--11\9--------|
|--------6-----------------7--------------------11\9--|
|--7-----------------------------7--------------------|

|-----------------------------------------------------|
|--7---7-7---7----------------------------------------|
|----8-----8---8h-11-p8----9-8-6----------------------|
|------------8-----------8-------9-11/13--11\9--------|
|--------6-----------------7--------------------11----|
|--7-----------------------------7--------------------|

|-----------------------------------------------------|
|--7---7-7---7----------------------------------------|
|----8-----8---8h-11-p8----9-8-6-8--------------------|
|------------8-----------8---------11/13--11\9--------|
|--------6-----------------7--------------------11\9--|
|--7-----------------------------7--------------------|

|-----------------------------------------------------|
|--7---7-7---7----------------------------------------|
|----8-----8---8h-11-p8----9-8-6----------------------|
|------------8-----------8-------9--------------------|
|--------6-----------------7--------------------------|
|--7-----------------------------7--------------------|

VERSE:

|------------------------------------------|
|------7------7-----9----------------------|
|------8------8-----9----------------------|
|------9----8-8---9-9---11/13--11\9--------|
|----9---6------7--------------------11/9--|
|--7------------------7--------------------|

|------------------------------------------|
|------7------7-----9----------------------|
|------8------8-----9----------------------|
|------9----8-8---9-9---11/13--11\9--------|
|----9---6------7--------------------11----|
|--7------------------7--------------------|

|------------------------------------------|
|------7------7-----9----------------------|
|------8------8-----9----------------------|
|------9----8-8---9-9---11/13--11\9--------|
|----9---6------7--------------------11/9--|
|--7------------------7--------------------|

|------------------------------------------|
|------7------7-----9----------------------|
|------8------8-----9----------------------|
|------9----8-8---9-9---11/13--11\9--------|
|----9---6------7--------------------11----|
|--7------------------7--------------------|

CHORUS:

|-----------------x-----x----------------|
|-----------------x-----x----------------|
|----8h9p8--------x-----x-8-8h9-8h9p8----|  x2
|----------9---11-x---9-x---9----------9-|
|------------9----x-7---x----------------|
|--7--------------x-----x-7--------------|

|------------------------------------------|
|------7------7-----9----------------------|
|------8------8-----9----------------------|
|------9----8-8---9-9---11/13--11\9--------|
|----9---6------7--------------------11/9--|
|--7------------------7--------------------|

|-----------------x-----x----------------|
|-----------------x-----x----------------|
|----8h9p8--------x-----x-8-8h9-8h9p8----|
|----------9---11-x---9-x---9----------9-|
|------------9----x-7---x----------------|
|--7--------------x-----x-7--------------|

[REPEAT HALF OF INTRO]

[REPEAT VERSE]

[REPEAT CHORUS]

[REPEAT INTRO]

[REPEAT CHORUS]

[REPEAT INTRO]



************************************

| /   slide up
| \   slide down
| h   hammer-on
| p   pull-off
| ~   vibrato
| +   harmonic
| x   Mute note
| b   Bend
| pb  Pre-bend
| br  Bend release
| pbr Pre-bend release
| brb Bend release bend

************************************
Tap to rate this tab
 
# A B C D E F G H I J K L M N O P Q R S T U V W X Y Z