Song name
# A B C D E F G H I J K L M N O P Q R S T U V W X Y Z

The Beautiful Girls - La Mar The Ocean tab

                                    LA MAR
                       As recorded by The Beautiful Girls
                    (From the 2003 Album THE BEAUTIFUL GIRLS)

Transcribed by Charredu at Ultimate Guitar.


Gtr I (D A D G B E) - 'Drop D' tuning makes it very easy to play.

I play this with my wrist above the guitar neck and use just one finger to play the 
whole song.

Reference video:
http://www.youtube.com/watch?v=uydYq7T_Mj8


Note: Play the tabs between these "repeat" bar symbols 21 times.

e||-------------||
b||-------------||
g||-------------||
d||-------------||
a||-------------||
D||-------------||

Tablature Legend
----------------
 PM  - palm muting
 x   - muted

--------------------------------

    Q=92
   4/4
    Gtr I
        PM       PM            PM          PM
||---------------------|---------------------------|
||---------------------|---------------------------|
||---------------------|---------------------------|
||----1-x---1--1-x---1-|----10-x----10--10-x----10-|
||----1-x---1--1-x---1-|----10-x----10--10-x----10-|
||--1-----1--------1---|-10------10----------10----|


      PM       PM          PM       PM
                                            21x
|--------------------|-----------------------||
|--------------------|-----------------------||
|--------------------|-----------------------||
|---5-x---5--5-x---5-|---6-x---6--6-x---6----||
|---5-x---5--5-x---5-|---6-x---6--6-x---6----||
|-5-----5--------5---|-6-----6--------6------||


      PM       PM            PM          PM
|--------------------|---------------------------|
|--------------------|---------------------------|
|--------------------|---------------------------|
|---1-x---1--1-x---1-|----10-x----10--10-x----10-|
|---1-x---1--1-x---1-|----10-x----10--10-x----10-|
|-1-----1--------1---|-10------10----------10----|


      PM       PM          PM       PM
|--------------------|---------------------|
|--------------------|---------------------|
|--------------------|---------------------|
|---5-x---5--5-x---5-|---6-x---6--6-x---6--|
|---5-x---5--5-x---5-|---6-x---6--6-x---6--|
|-5-----5--------5---|-6-----6--------6----|


|-----------|--------*|
|-----------|--------*|
|-^0--------|-(0)----*|
|-^1--------|-(1)----*|
|-^1--------|-(1)----*|
|-^1--------|-(1)----*|


Note:

1. For detaled playing instructions and timing, download the free Powertab version of La 
Mar (drop D version) uploaded with this tab.

2. Powertab runs only on Windows but Mac users can substitute "Tabview" here:
http://www.tellini.org/mac/tabview

***************************************************************************************
* Generated using Power Tab Editor by Brad Larsen - http://powertab.guitarnetwork.org *
***************************************************************************************
Tap to rate this tab
 
# A B C D E F G H I J K L M N O P Q R S T U V W X Y Z