Song name
# A B C D E F G H I J K L M N O P Q R S T U V W X Y Z

The Beautiful Girls - Girl Lately So Many Things Have Been Changing tab

The Beautiful Girls
Girl Lately So Many Things Have Been Changing

Standard Tuning

e-----------------------------------------|
b-----------------------------------------|
g-----------------------------------------|
d-----------------------------------------|
a-------1----------1------------1---------|
E---1-1---4----1-1---4-1----1-1---4-------|


e-----------------------------------------------|
b-----------------------------------------------|
g-----------------------------------------------|
d---------------------------------------1-------|
a-------1----------1------------1---1-3---1-----|
E---1-1---4----1-1---4-1----1-1---4---------4-1-|





ADDITIONALLY!
If you feel like tuning your low E string down half a step to a Eb, you can hit that 
extra note that they throw in. In this new tuning, it looks like this...

e------------------------------------------|
b------------------------------------------|
g------------------------------------------|
d------------------------------------------|
a-------1----------1-----------1-----------|
E---2-2---5----2-2---5-2-0-2-2---5---------|


e------------------------------------------------|
b------------------------------------------------|
g------------------------------------------------|
d---------------------------------------1--------|
a-------1----------1-----------1---1-3---1-------|
E---2-2---5----2-2---5-2-0-2-2---5---------5-2---|
Tap to rate this tab
# A B C D E F G H I J K L M N O P Q R S T U V W X Y Z