Song name
# A B C D E F G H I J K L M N O P Q R S T U V W X Y Z

The Beautiful Girls - La Mar The Ocean tab

-------------------------------------------------------------------------------
                             La Mar (the ocean) - The Beautiful Girls
-------------------------------------------------------------------------------
Tabbed by: JJBlues85
E-mail: timeslikethese2013@gmail.com

NOTE: The whole song is played without a pick. It is finger picked, even the solo.

Pluck the first/single note with your thumb on the rhythm guitar and strum with your 
index and/or middle finger. Xs mean to slap mute.

************************************

| /   slide up
| \   slide down
| h   hammer-on
| p   pull-off
| ~   vibrato
| +   harmonic
| x   Mute note
| b   Bend
| pb  Pre-bend
| br  Bend release
| pbr Pre-bend release
| brb Bend release bend

************************************

Tuning: D# (half-step down)

Rhythm Guitar

    E     E        E  C#m    C#m   C#m   Ab      Ab    Ab   A       A     A
e|----x--------x---------x--------x---------x--------x---------x--------x---|
B|--0-x---0--0-x---0---5-x---5--5-x---5---4-x---4--4-x---4---5-x---5--5-x--5|
G|--1-x---1--1-x---1---6-x---6--6-x---6---5-x---5--5-x---5---6-x---6--6-x--6|
D|--2-x---2--2-x---2---6-x---6--6-x---6---6-x---6--6-x---6---7-x---7--7-x--7|
A|--2-x---2--2-x---2-4-4-x-4-4--4-x-4-4---6-x---6--6-x---6---7-x---7--7-x--7|
E|0-0-x-0-2--2-x-0-2-----x--------x-----4-4-x-4-4--4-x-4-4-5-5-x-5-5--5-x5-5|
[Repeat the whole song]

Solo
e|--------------------------------------------------------------------------|
B|------------------------------------------------------------------------12|
G|------------------------------------------------11b13b11----9---11b13-----|
D|-------------------------------9-----9h11~--9~---------------11-----------|
A|-7~--9-7~----9-7~--9/11~----11---11---------------------------------------|
E|--------------------------------------------------------------------------|

e|--------------------------------------------------------------------------|
B|----------12---------------------------12-----12-----12-----12-----12-----|
G|-11b13-------11b13--9h11p9--------11h13--11h13--11h13--11h13--11h13--11h13|
D|---------------------------11-9\1-----------------------------------------|
A|--------------------------------------------------------------------------|
E|--------------------------------------------------------------------------|

e|--------------------------------------------------------------------------|
B|12-----12-----12-----12-----12-----12-----12-----12-----12-----12-----12--|
G|--11h13--11h13--11h13--11h13--11h13--11h13--11h13--11h13--11h13--11h13----|
D|--------------------------------------------------------------------------|
A|--------------------------------------------------------------------------|
E|--------------------------------------------------------------------------|

e|--------------------------------------------------------------------------|
B|--------------------------------------------------------------------------|
G|11/13~--11--9-----------------9--9h11p9--9--------------------9--9h11p9---|
D|--------------11--9h11-9--9h11---------11-11p9----9h11-9--9h11---------11-|
A|------------------------11---------------------11-------11----------------|
E|--------------------------------------------------------------------------|

e|--------------------------------------------------------------------------|
B|--------------------------------------------------------------------------|
G|9--9------------------9--9h11p9--9-------------------------9-9-9\1--------|
D|----11----9h11-9--9h11---------11-11p9---9h11-11-11-11-9h11---------------|
A|----------------11--------------------11----------------------------------|
E|--------------------------------------------------------------------------|

[Verse 1]
This day is getting older,
in fading light it's beautiful.
This wind is blowing colder,
and too soon I'll feel it's pull.

Still, I took all my chances,
earned myself an even score.
Try to learn my lessons well.

And I don't have the answers,
for those questions anymore.
Only love can be both heaven and hell.


[Chorus]
So sturdy up, sturdy up your heart,
for the road is long ahead.
I'll be with you even though we're apart,
but your road is yours to tread.

And so it goes, and so it goes,
and so it goes, slows your mind, mind, mind,
And so it goes... and so it goes, and so it goes, slows your mind, mind, mind,
mind, mind.

[Solo]

[Verse 2]
I've grown old on this ocean,
gave her all, my stronger years.
Gave my wife my devotion,
when she died, the ocean my tears.

I've tried to teach you well son,
all of everything I knew.
Of how to live this life be true.

Don't bow your head to no one,
and no matter what you do,
if you start then see it through.


[Chorus]
So sturdy up, sturdy up your heart,
for the road is long ahead.
I'll be with you even though we're apart,
but your road is yours to tread.

And so it goes, and so it goes,
and so it goes, slows your mind, mind, mind,
And so it goes... and so it goes, and so it goes, slows your mind, mind, mind.




************************************

| /   slide up
| \   slide down
| h   hammer-on
| p   pull-off
| ~   vibrato
| +   harmonic
| x   Mute note
| b   Bend
| pb  Pre-bend
| br  Bend release
| pbr Pre-bend release
| brb Bend release bend

************************************
Tap to rate this tab
# A B C D E F G H I J K L M N O P Q R S T U V W X Y Z