Guitaretab - guitar tabs
Song name
# A B C D E F G H I J K L M N O P Q R S T U V W X Y Z

The Beautiful Girls - High Rolling tab

Artist: The Beautiful Girls

Song: High Rolling

Album: Learn Yourself

Tabbed by: shanE

email: unpaid.debt__@hotmail.com






The little lick.

e|--------------------|
B|--------------------|
G|--------------------|
D|-/7--5--------------|
A|---------7---5/-----|
E|--------------------|

It's best if you slide the D back to the nut
 or for you tab people 5s0


Verse
[ Tab from: http://www.guitaretab.com/t/the-beautiful-girls/62903.html ]
e|-------------------------------------|
B|-------------------------------------|
G|-------------------------------------|
D|-5-5--5--x--7--7--7--7--x--3-3-3-x-5-|
A|-5-5--5--x--7--7--7--7--x--3-3-3-x-5-| Play the lick after each verse
E|-3-3--3--x--5--5--5--5--x--1-1-1-x-3-|

Pre-Chorus

e|-------------------------------------|
B|-------------------------------------|
G|-7-7-7-x-5-5-5-x-x-------------------|
D|-7-7-7-x-5-5-5-x-x-5-5-5-x-x-3-3-3-5-|
A|-5-5-5-x-3-3-3-x-x-5-5-5-x-x-3-3-3-5-|
E|-------------------3-3-3-x-x-1-1-1-3-|  You don't have to play the
                                      G, it probably sounds better without


Before Chorus, hold a G chord.
Chorus

e|-------------------------------|
B|-------------------------------|
G|-------------------------------|
D|-5-5-5-x-7-7-7-x-3-3-3-x-5-5-5-|
A|-5-5-5-x-7-7-7-x-3-3-3-x-5-5-5-| 
E|-3-3-3-x-5-5-5-x-1-1-1-x-3-3-3-|



There ya 'av it.

One of my fav bands.


Related for High Rolling tab
Advertisement will be closed in 10 seconds