Song name
# A B C D E F G H I J K L M N O P Q R S T U V W X Y Z

The Beautiful Girls - Freedom Part 2 tab

intro:

e------------------------------------------------------------------|
B--7-------7---7-------7-------------------------------------------|
G-----8------------8-------8h9p8----9--8--6---8--------------------|
D-------------------------------9-----------------11/13--11\9------|
A--------------6--------------------7-------------------------11\9-|
E--7------------------------------------------7--------------------|

e-------------------------------------------------------------------|
B--7-------7---7-------7--------------------------------------------|
G-----8------------8-------8h9p8----9--8--6-------------------------|
D-------------------------------9-------------9----11/13--11\9------|
A--------------6--------------------7--------------------------11---|
E--7------------------------------------------7---------------------|

verse:
e-------7---------6-------7-----------------------------------------|
B-------7---------7-------9-----------------------------------------|
G-------8---------8-------9-----------------------------------------|
D-------9------8--8----9--9-----------11----11/13---11p9------------|
A-----9-9---6-----6---7---7--------------------------------11p9-----|
E-7-----7-----------------------7-----------------------------------|

chorus:
e--------------------------------------------------------------------|
B--------------------------------------------------------------------|
G-----8h9p8----------------9-----8h9-8h9p8---------------------------|
D-----------9-----11----9-------9---------9--------------------------|
A---9-----------9------7---------------------------------------------|
E-7---------------------------7--------------------------------------|
Tap to rate this tab
 
# A B C D E F G H I J K L M N O P Q R S T U V W X Y Z