Guitaretab - guitar tabs
Song name
# A B C D E F G H I J K L M N O P Q R S T U V W X Y Z

The Beautiful Girls - When I Had You With Me tab

--------------------------------------------------------------------------
		When I Had You With me  The Beautiful Girls
--------------------------------------------------------------------------
Tabbed by:Chris Fountain
Neat song by The Beautiful Girls off their new album.  
Listen to song for the feel.

Tuning:Standard
                    
   1 & 2 & 3 & 4 &   1 & 2 & 3 & 4 &   1 & 2 & 3 & 4 &   1 & 2 & 3 & 4 &
e|-----2-2-----2-2-|-----2-2-----2-2-|-----0-0---0-0-0-|-----0-0---0-0-0-|
B|-----3-3-----3-3-|-----3-3-----3-3-|-----3-3---3-3-3-|-----3-3---3-3-3-|
G|-----2-2-----3-2-|-------------0-0-|-----0-0---0-0-0-|-----0-0---0-0-0-|
D|-0---------------|-------------0-0-|-----0-0---0-0-0-|-----2-2---2-2-2-|X4
A|---------4-------|-2---2-2-0---0-0-|-----x-x---x-x-x-|-0---0-0---0-0-0-|
E|-----------------|-----------------|-3---3-3---3-3-3-|-----------------|
       D u     d u       d u     d u       d u   u d u       d u   u d u


Verse:
   1 & 2 & 3 & 4 &   1 & 2 & 3 & 4 &   1 & 2 & 3 & 4 &   1 & 2 & 3 & 4 &
e|-----2-2-----2-2-|-----2-2-----2-2-|-----0-0---0-0-0-|-----0-0---0-0-0-|
B|-----3-3-----3-3-|-----3-3-----3-3-|-----3-3---3-3-3-|-----3-3---3-3-3-|
G|-----2-2-----2-2-|-------------0-0-|-----0-0---0-0-0-|-----0-0---0-0-0-|
D|-0---------------|-------------0-0-|-----0-0---0-0-0-|-----2-2---2-2-2-|X4
A|---------4-------|-2---2-2-0---0-0-|-----x-x---x-x-x-|-0---0-0---0-0-0-|
E|-----------------|-----------------|-3---3-3---3-3-3-|-----------------|
       D u     d u       d u     d u       d u   u d u       d u   u d u


Chorus
   1 & 2 & 3 & 4 &   1 & 2 & 3 & 4 &   1 & 2 & 3 & 4 &   1 & 2 & 3 & 4 &
e|-----2-2-----2-2-|-----2-2-----2-2-|-----------------|-----------------|
B|-----3-3-----3-3-|-----3-3-----3-3-|-----1-1---1-1-1-|-----2-2---2-2-2-|
G|-----2-2-----2-2-|-----------------|-----------------|-----2-2---2-2-2-|
D|-0---------------|-----------------|-----2-2---2-2-2-|-----2-2---2-2-2-|X2
A|---------4-------|-2---2-2-0---0-0-|-3---3-3---3-3-3-|-0---------------|
E|-----------------|-----------------|-----------------|-----------------|
       D u     d u       d u     d u       d u   u d u       d u   u d u


   1 & 2 & 3 & 4 &   1 & 2 & 3 & 4 &   1 & 2 & 3 & 4 &   1 & 2 & 3 & 4 &
e|-----2-2-----2-2-|-----2-2-----2-2-|-----0-0---0-0-0-|-----0-0---0-0-0-|
B|-----3-3-----3-3-|-----3-3-----3-3-|-----3-3---3-3-3-|-----3-3---3-3-3-|
G|-----2-2-----3-2-|-------------0-0-|-----0-0---0-0-0-|-----0-0---0-0-0-|
D|-0---------------|-------------0-0-|-----0-0---0-0-0-|-----2-2---2-2-2-|X2
A|---------4-------|-2---2-2-0---0-0-|-----x-x---x-x-x-|-0---0-0---0-0-0-|
E|-----------------|-----------------|-3---3-3---3-3-3-|-----------------|
       D u     d u       d u     d u       d u   u d u       d u   u d u

[ Tab from: http://www.guitaretab.com/t/the-beautiful-girls/71702.html ]
Verse:
   1 & 2 & 3 & 4 &   1 & 2 & 3 & 4 &   1 & 2 & 3 & 4 &   1 & 2 & 3 & 4 &
e|-----2-2-----2-2-|-----2-2-----2-2-|-----0-0---0-0-0-|-----0-0---0-0-0-|
B|-----3-3-----3-3-|-----3-3-----3-3-|-----3-3---3-3-3-|-----3-3---3-3-3-|
G|-----2-2-----3-2-|-------------0-0-|-----0-0---0-0-0-|-----0-0---0-0-0-|
D|-0---------------|-------------0-0-|-----0-0---0-0-0-|-----2-2---2-2-2-|X4
A|---------4-------|-2---2-2-0---0-0-|-----x-x---x-x-x-|-0---0-0---0-0-0-|
E|-----------------|-----------------|-3---3-3---3-3-3-|-----------------|
       D u     d u       d u     d u       d u   u d u       d u   u d u


Chorus:
   1 & 2 & 3 & 4 &   1 & 2 & 3 & 4 &   1 & 2 & 3 & 4 &   1 & 2 & 3 & 4 &
e|-----2-2-----2-2-|-----2-2-----2-2-|-----------------|-----------------|
B|-----3-3-----3-3-|-----3-3-----3-3-|-----1-1---1-1-1-|-----2-2---2-2-2-|
G|-----2-2-----2-2-|-----------------|-----------------|-----2-2---2-2-2-|
D|-0---------------|-----------------|-----2-2---2-2-2-|-----2-2---2-2-2-|X2
A|---------4-------|-2---2-2-0---0-0-|-3---3-3---3-3-3-|-0---------------|
E|-----------------|-----------------|-----------------|-----------------|
       D u     d u       d u     d u       d u   u d u       d u   u d u




Bridge      
   1 & 2 & 3 & 4 &   1 & 2 & 3 & 4 &   1 & 2 & 3 & 4 &   1 & 2 & 3 & 4 &
e|-----3-3---3-3-3-|-----------------|-----2-2---2-2-2-|-----3-3---3-3-3-|
B|-----3-3---3-3-3-|-----2-2---2-2-2-|-----2-2---2-2-2-|-----3-3---3-3-3-|
G|-----------------|-----2-2---2-2-2-|-----2-2---2-2-2-|-----------------|
D|-----------------|-----2-2---2-2-2-|-----4-4---4-4-4-|-----------------|X3
A|-----2-2---2-2-2-|-0---0-0---0-0-0-|-----4-4---4-4-4-|-----2-2---2-2-2-| 
E|-3---3-3---3-3-3-|-----------------|-2---2-2---2-2-2-|-3---3-3---3-3-3-|
       D u   u d u       d u   u d u       d u   u d u       d u   u d u

   1 & 2 & 3 & 4 &   1 & 2 & 3 & 4 &
e|-----3-3---3-3-3-|-----------------|
B|-----3-3---3-3-3-|-----2-2---2-2-2-|
G|-----------------|-----2-2---2-2-2-|
D|-----------------|-----2-2---2-2-2-|
A|-----2-2---2-2-2-|-0---0-0---0-0-0-|
E|-3---3-3---3-3-3-|-----------------|
       D u   u d u       d u   u d u


Verse
   1 & 2 & 3 & 4 &   1 & 2 & 3 & 4 &   1 & 2 & 3 & 4 &   1 & 2 & 3 & 4 &
e|-----2-2-----2-2-|-----2-2-----2-2-|-----0-0---0-0-0-|-----0-0---0-0-0-|
B|-----3-3-----3-3-|-----3-3-----3-3-|-----3-3---3-3-3-|-----3-3---3-3-3-|
G|-----2-2-----3-2-|-------------0-0-|-----0-0---0-0-0-|-----0-0---0-0-0-|
D|-0---------------|-------------0-0-|-----0-0---0-0-0-|-----2-2---2-2-2-|X4
A|---------4-------|-2---2-2-0---0-0-|-----x-x---x-x-x-|-0---0-0---0-0-0-|
E|-----------------|-----------------|-3---3-3---3-3-3-|-----------------|
       D u     d u       d u     d u       d u   u d u       d u   u d u


   1 & 2 & 3 & 4 &
e|-2---------------|
B|-3---------------|
G|-2---------------|
D|-----------------|
A|-----------------|
E|-----------------|
   d


| /  slide up
| \  slide down
| h  hammer-on
| p  pull-off
| ~  vibrato
| +  harmonic
| x  Mute note
==========================================================================
Related for When I Had You With Me tab