Song name
# A B C D E F G H I J K L M N O P Q R S T U V W X Y Z

The Beautiful Girls - Cash Money tab

Cash Money - The Beautiful Girls

[Originally from www.xrtab.com]

   D                     G
d|-----------2-----2---|---------------------|
A|-------3-----3-----3-|---3-------3-----3---|
F|---2-----2-----2-----|-------4-----4-----4-|
C|-0---0---------------|---------5-----5-----|
G|---------------------|-----5---------------|
D|---------------------|-3-------------------|

   Bm                    A
d|---------------------|-----------5---------|
A|---3-------3-----3---|---5-------------5---|
F|-------4-----4-----4-|-------6-----6-----6-|
D|---------4-----4-----|---------7-----7-----|
G|-2---2---------------|-----7---------------|
D|---------------------|-5-------------------|

Around halfway through the song there is a break and Mat plays the D like this:

d|------------5-3p2-----|
A|-------3----------3---|
F|---2-----2----------2-|
C|-0---0----------------|
G|----------------------|
D|----------------------|
Tap to rate this tab
# A B C D E F G H I J K L M N O P Q R S T U V W X Y Z