Guitaretab - guitar tabs
Song name
# A B C D E F G H I J K L M N O P Q R S T U V W X Y Z

The Beautiful Girls - Learn Yourself tab

MY NAME IS PARLEZ, BEEN A LONG TIME FAN OF THE
BEAUTIFUL GIRLS AND THEIR MUSIC
LEARN YOURSELF IS A TOP SONG AND I WANTED TO LEARN IT 
BUT I HAVENT FOUND A GOOD TAB FOR IT SO I SAID SCREW IT
ILL TAB IT BECAUSE I THINK THE OTHER TAB IS WRONG
THE TUNNING IS JUST FRICKIN STUPID
LEGEND
* PALM MUTE
B BEND
R REALESE BEND
/ SLIDE UP
\ SLIDE DOWN

INTRO/
e-------------------------------------------------|
B---1*1----1*1----0*0----1*-----------------------|
G---2*2----0*0----0*0----0*-----------------------|
D---2*2----2*2----0*0----0*-----------------------|
A-0---0--3---3--2---2---------0-------------------|
E----------------------3---0h3--------------------|


VERSE/BRIDGE 
e-------------------------------------------------|
B---1*1----1*1----0*0----1*-----------------------|
G---2*2----0*0----0*0----0*-----------------------|
D---2*2----2*2----0*0----0*-----------------------|
A-0---0--3---3--2---2---------0-------------------|
E----------------------3---0h3--------------------|

[ Tab from: http://www.guitaretab.com/t/the-beautiful-girls/71850.html ]
END THE VERSE WITH THIS
e-------------------------------------------------|
B---1*1----1*1----0*0----1*-----------------------|
G---2*2----0*0----0*0----0*-----------------------|
D---2*2----2*2----0*0----0*-----------------------|
A-0---0--3---3--2---2-----------------------------|
E----------------------3---0h3-1------------------|


CHORUS/
e-------------------------------------------------|
B---1*1----1*1----0*0----1*1----------------------|
G---2*2----0*0----0*0----0*0----------------------|
D---3*3----2*2----2*2----0*0----------------------|
A-0---0--3---3--2---2-----------------------------|
E----------------------3--------------------------|


(GUITAR SOLO)  WITH THIS EXAMPLE 5B/7\R5 SLIDE BACK TO THE 
NOTE 5 AND DONT PLUCK IT
e|------------------------------------------------|
B|------------------------6--6/8--8/10\8----------|
G|---5B/7\R5-3---5B/7\R5--------------------------|
D|------------------------------------------------|
A|------------------------------------------------|
E|------------------------------------------------|
 
e|------------------------------------------------|
B|---6----8b--6b----------------------------------|
G|---------------7P9------------------------------|
D|-------------------7/9-7-5P7--------------------|
A|-----------------------------7\-----------------|
D|------------------------------------------------|

    TIMES PLAYED

INTRO  * 4         ALRIGHT THATS MY TAB FOR LEARN YOURSELF 

VERSE  * 4

CHORUS * 4

BRIDGE * 4

VERSE  * 4

CHORUS * 4

GUITAR SOLO

CHORUS * 4
Related for Learn Yourself tab
×
Learn Yourself