Song name
# A B C D E F G H I J K L M N O P Q R S T U V W X Y Z

The Beautiful Girls - On A Clear Day tab

Tuning (DGCFAD)


intro/verse
Gm Bb F
d:-----------------------------------------------|
A:----------------------0h1p0-1--1--1-1--3-------|
F:------0h2p0--------2--------2--2--0-0--0-------|
C:-0h2-------------------------------------------|
G:--------------3p0-0---------------3-3--2-------|
D:-----------------------------------------------|

Chorus
Eb F
d:------------------------------------------|
A:--------------------1---1--1----3---3-3---|
F:------0h2p0---------2---2--2----0---0-0---|
C:-0h2----------------3---3--3----0---0-0---|
G:-------------3p0--------------------------|
D:--------------------1---1--1----3---3-3---|


Bb Bb/A Gm
d:----0------0----------------|
A:----1------1---------1------|
F:----0--0---0---------2------| Repeat however many times,
C:-------2------0------2------| On the last time it goes from
G:-3-------2---2----0---------| the F straight to the Gm
D:----------------------------|

First Break

d:---------------------------------------------|
A:---------------------------------------------|
F:---------------------------------------------|
C:-7-7-7-7-7-7-7-7-7-7-7-7p5---5-7-------------|
G:-----------------------------------7---------|
D:---------------------------------------------|

d:---------------------------------------------------|
A:---------------------------------------------------|
F:------------------------------------------7p5------|
C:-7-7-7-7-7-7-7-7-7-7-7-7p5---5-7-----7-------------|
G:-----------------------------------7---------------|
D:---------------------------------------------------|


d:---------------------------------------------|
A:---------------------------------------------|
F:---------------------------------------------|
C:-7-7-7-7-7-7-7-7-7-7-7-7p5---5-7-------------|
G:-----------------------------------7---------|
D:---------------------------------------------|


d:------------------------------------------------|
A:------------------------------------------------|
F:-7p5---5p2----------5p2-------------------------|
C:---------------5h7----------5h7-7-7-5-7---------|
G:------------------------------------------------|
D:------------------------------------------------|
Tap to rate this tab
 
# A B C D E F G H I J K L M N O P Q R S T U V W X Y Z